» » »

A Is For Apple Tabs (ver.1)

Artists:  A B C D E F G H I J K L M N O P Q R S T U V W X Y Z # 

A Is For Apple Tabs (ver.1)

Taken Off The Menu
Rating:
0/5 (0 votes)

Hard to play? Try these video lessons and learn fast.
                Intro / Verse

e-----------------------------				
B-----------------------------		
G--7-------------------------			
D--7---4--5---7-------------	  x 2			
A--5---4--5---7-------------				       
E------2--3---5-------------					



Verse

e-----------------------------------------
B------------------------------------------
G--77777---------------------------------
D--77777--44444--55555--77777------
A--55555--44444--55555--77777------
E---------22222--33333--55555------

e-----------------------------------------
B------------------------------------------
G--77777---------------------------------
D--77777--44444--55555--77-555-----
A--55555--44444--55555--77-555-----
E---------22222--33333--55-333-----



Chorus

e--------------------------------------------
B--------------------------------------------
G--77777-----------------------------------
D--77777--77777---44444--555--777---
A--55555--77777---44444--555--777---
E---------55555---22222--333--555----


End on

e----------
B----------
G--7------
D--7------
A--5------
E----------
            
Hard to play? Try these video lessons and learn fast. | Correct




comments powered by Disqus
↑ Back to top | Tablatures and chords are parodies/interpretations of the original songs. You may use it for private study, scholarship, research or language learning purposes only