» » »

Taj Mahal, Aint That A Lot Of Love Bass tabs (ver.1)

Artists:  A B C D E F G H I J K L M N O P Q R S T U V W X Y Z # 

Aint That A Lot Of Love Bass tabs (ver.1)

Taj Mahal Tabs
Rating:
0/5 (0 votes)
Aint That A Lot Of Love lessons Tabs too difficult? Try these video lessons and learn fast
                G-----------------------|
D-----------------------|
A-7-7-7-7-7-7-----------|
E-------------0---------|x14

G-------------------------------|
D-------------------------------|
A-------------------------------|
E--5-5-5-5-5-5-5-8-8-8-8-8-8-8--|

G----------------------|
D----------------------|
A--7-7-7-7-7-7---------|
E--------------0-------|x10

G------------------------------------|
D------------------------------------|
A------------------------------------|
E-0-3-3-5-5-5-5-5-5-5-8-8-8-8-8-8-8--|

G--------------------------------|
D--------------------------------|
A--7-7-7-7-7-7-------------------|
E--------------5--0-----x10 1:00-|

G------------------------------------|
D------------------------------------|
A------------------------------------|
E-0-3-3-5-5-5-5-5-5-5-8-8-8-8-8-8-8--|

G---------------------------|
D---------------------------|
A--7-7-7-7-7-7--------------|
E--------------5--0-----x10-|

G------------------------------------|
D------------------------------------|
A------------------------------------|
E-0-3-3-5-5-5-5-5-5-5-8-8-8-8-8-8-8--|

G----------------------|
D----------------------|
A--7-7-7-7-7-7---------|
E----------------0-----|x2

G------------------------------------|
D------------------------------------|
A------------------------------------|
E-0-3-3-5-5-5-5-5-5-5-8-8-8-8-8-8-8--|

G------------------------|
D------------------------|
A--7-7-7-7-7-7-----------|
E--------------5--0------|x2

G-------------|
D-------------|
A--7----------|
E----0--------|x4

G----------------------|
D----------------------|
A--7-7-7-7-7-7---------|
E----------------0-----|x12

G----------------------------------|
D----------------------------------|
A--7-7-7-7-7-7-7-7-7-7-7-7-7-7-7-7-|
E----------------------------------|

G-------------|
D-------------|
A--7----------|
E----0--------|x4

G----------------------|
D----------------------|
A--7-7-7-7-7-7---------|
E----------------0-----|x12

G----------------------------------|
D----------------------------------|
A--7-7-7-7-7-7-7-7-7-7-7-7-7-7-7-7-|
E----------------------------------|

G------------------------------------|
D------------------------------------|
A------------------------------------|
E-0-3-3-5-5-5-5-5-5-5-8-8-8-8-8-8-8--|

G---------------------------|
D---------------------------|
A--7-7-7-7-7-7--------------|
E--------------5--0-----x10-|

G------------------------------------------------------|
D------------------------------------------------------|
A-------------------------------------7-7-7-7-7-7------|
E-0-3-3-5-5-5-5-5-5-5-8-8-8-8-8-8-8---------------5-0--|x4

G-----------------------------------------------|
D-----------------------------------------------|
A------------------------------7--7--7--7-------|
E-0-0-0-0-0-0-0-0-0-0-0-0-0-0-------------------|
            
Submit corrections

comments powered by Disqus
↑ Back to top | Taj Mahal Bass for Aint That A Lot Of Love. Lyrics for acoustic guitar and electric guitar. Tablatures and chords are parodies/interpretations of the original songs. You may use it for private study, scholarship, research or language learning purposes only