» » »

Tait, Talk About Jesus Tabs (ver.1)

Artists:  A B C D E F G H I J K L M N O P Q R S T U V W X Y Z # 

Talk About Jesus Tabs (ver.1)

Tait Tabs
Rating:
0/5 (0 votes)
Talk About Jesus lessons Tabs too difficult? Try these video lessons and learn fast
                ========================                    =========================
Talk About Jesus---Tait---------------------Transfered by Asa Gaston
========================                    =========================


Am (let ring throughout) –fade in and repeat 5 times
|---------3------3------3-----------------------------------------|
|-----------1------1------1---------------------------------------|
|-----2-------2------2--------------------------------------------|
|---2-------------------------------------------------------------|
|-0---------------------------------------------------------------|
|-----------------------------------------------------------------|


Acoustic Guitar: play throughout verse 1 as well
  Am         (x2)  C          (x2)  G          (x2)  Am
|-0--0--0---0--0-|-0--0--0---0--0-|----------------|-0--0--0---0--0-|-0--|
|-1--1--1---1--0-|-1--1--1---1--0-|----------------|-1--1--1---1--0-|-1--|
|-2--2--2---2--2-|-0--0--0---0--0-|-0--0--0---0--0-|-2--2--2---2--2-|-2--|
|-2--2--2---2--2-|-2--2--2---2--2-|-0--0--0---0--0-|-2--2--2---2--2-|-2--|
|-0--0--0---0--0-|-3--3--3---3--3-|-2--2--2---2--2-|-0--0--0---0--0-|-0--|
|----------------|----------------|-3--3--3---3--3-|----------------|----|


Electric Guitar Lead:
    0:13                                    Am (play over acoustic guitar)
|-----------------------------------------|----------|-----------|
|-----------------------------------------|----------|-----------|
|---x-/5--4-------------------------------|----------|-----------|
|------------5—7~~~----5\2~~~~------------|----------|-----------|
|---------------------------------2h3-----|-0~~~~~---|-----------|
|---------------------------------------3-|----------|-----------|

  C                   G                     Am
|---------|---------|----------|----------|----------|-----------|
|---------|---------|----------|----------|----------|-----------|
|---------|---------|----------|----------|----------|-----------|
|---------|---------|----------|----------|----------|-----------|
|-3~~~~---|-----3h5-|----------|----------|-0~~~~----|-----------|
|---------|---------|-3~~~~----|----------|----------|-----------|


  0:56
|----------------------|--------|--------|-------------------------|
|----------------------|--------|--------|-------------------------|
|-2--4—5/7-------------|-0~~~~~-|--------|-------------------------|
|------------7~~~~-----|--------|--------|-2~~~~~-----2h3—2~~~~~---|
|----------------------|--------|--------|-------------------------|
|----------------------|--------|--------|-------------------------|

  1:22                              1:30 dive down with whammy bar
|---------------------------------|-------------------------------|
|---------------------------------|-0-----------------------------|
|-4--5--4-------------------------|-------------------------------|
|----------7--5---5h7~~~~--9~~~~~-|-------------------------------|
|---------------------------------|-------------------------------|
|---------------------------------|-------------------------------|

  1:36                    1:44
|-----------------------------------------------------------------|
|-----------------------------------------------------------------|
|-5--4--------------------5--4------------------------------------|
|--------5---7-------------------5---7----------------------------|
|-----------------------------------------------------------------|
|-----------------------------------------------------------------|

  1:49                        1:53
|-----------------------------------------------------------------|
|-----------------------------8---10------------------------------|
|-4---5---7---9~~~~~-------------------(7)---9~~~~~---------------|
|-----------------------------------------------------------------|
|-----------------------------------------------------------------|
|-----------------------------------------------------------------|

  1:56                                           2:02
|-------------------------------|----------------------------------|
|-------------------------------|--------------------------5~~~----|
|-4---5-----7-------5---4-------|----------------5----7------------|
|---------------------------5---|-7~~~~~---------------------------|
|-------------------------------|----------------------------------|
|-------------------------------|----------------------------------|

  2:05
|------------------------------|-------------------------------|
|-8~~~~-----8h10--8~~~\3-----\-|-(5)---------------------------|
|------------------------------|-------------------------------|
|------------------------------|-------------------------------|
|------------------------------|-------------------------------|
|------------------------------|-------------------------------|

  2:20                         2:27
|------------------------------------7-8----12--------------------|
|-5\3~~~----3-3/5--6--5--------/10---------------12---10~~~-------|
|-----------------------------------------------------------------|
|-----------------------------------------------------------------|
|-----------------------------------------------------------------|
|-----------------------------------------------------------------|

  2:32               2:36
|-5—5/7-----------------------------------------------------------|
|---------8~~~-------5h6-5---6--5---------------------------------|
|-----------------------------------7~~~-/5-/4---4/5\4—\2~~~------|
|--------------------------------------------------------------2~-|
|-----------------------------------------------------------------|
|-----------------------------------------------------------------|


  2:54                2:57           3:03
|-----------------------------------------------------------------|
|-----------------------------------------------------------------|
|-4--5--4---------------------------(/9~~)--9/--------------------|
|-----------7p5—7~~~--/9~~~~--------------------------------------|
|-----------------------------------------------------------------|
|-----------------------------------------------------------------|

  3:07                3:16             3:19
|-------------------------------------------------------------5~~~-|
|-5--4----------------5--4----------------4/5----8----5--8---------|
|-------5--/7~~~-------------5---7-----5---------------------------|
|------------------------------------------------------------------|
|------------------------------------------------------------------|
|------------------------------------------------------------------|

  3:24            3:29             3:33
|-(5)---3-3/5-----5—7--8~~--5------5—7~---12----15--12-------------|
|-------------------------------------------------------13--12--10-|
|------------------------------------------------------------------|
|------------------------------------------------------------------|
|------------------------------------------------------------------|
|------------------------------------------------------------------|


PRECHORUS: electric guitar with dist (let ring throughout)
  Fmaj7                   G6              repeat x3
|-----------0-----------|-----------0-----------|
|-------1-------1-------|-------3-------3-------|
|----2------------(2)---|----4------------(4)---|
|-3---------------------|-5---------------------|
|-----------------------|-----------------------|
|-----------------------|-----------------------|


  Am         F             G        *slowly dive down with whammy bar
|-0----------1----------|-3--------------------------------------|
|-1----------1----------|-3--------------------------------------|
|-2----------2----------|-0-(hold)-0-----------------------------|
|-2----------3----------|-0--------------------------------------|
|-0---------------------|-2--------------------------------------|
|-----------------------|-3--------------------------------------|


CHORUS: Electric guitar (slight dist)
  Am            F             C             G
|---------------------------|---------------------------|
|-1-------------------------|-1-------------------------|
|-2-------------2-----------|-0-------------0-----------|
|-2---2--2--2---3-----------|-2---2--2--2---0-----------|
|-0---0--0--0---3---3--3--3-|-3---3--3--3---2---2--2--2-|
|---------------1---1--1--1-|---------------3---3--3--3-|
            
Submit corrections

comments powered by Disqus
↑ Back to top | Tait Tabs for Talk About Jesus. Lyrics for acoustic guitar and electric guitar. Tablatures and chords are parodies/interpretations of the original songs. You may use it for private study, scholarship, research or language learning purposes only