» » »

Tait, Lose This Life Tabs (ver.1)

Artists:  A B C D E F G H I J K L M N O P Q R S T U V W X Y Z # 

Lose This Life Tabs (ver.1)

Tait Tabs
 Rating:
4.3/5 (6 votes)
Lose This Life lessons Tabs too difficult? Try these video lessons and learn fast
                ---------------------------------------------------------------------------
---------------------------------------------------------------------------

Tuning: Standard (E)


Intro

e|-------------------------------------------------------------------------|
B|-------------------------------------------------------------------------|
G|-------------------------------------------------------------------------|
D|--10101010101010101010101010101010--8888888888888888--8888888888888888---|
A|--8-8-8-8-8-8-8-8-8-8-8-8-8-8-8-8---8888888888888888--6666666666666666---|
E|------------------------------------6666666666666666---------------------|

e|-------------------------------------------------------------------------|
B|-------------------------------------------------------------------------|
G|-------------------------------------------------------------------------|
D|--66666666666666666------------------------------------------------------|
A|--66666666666666666------------------------------------------------------|
E|--44444444444444444------------------------------------------------------|


Verse (Repeat x2)

****Note: The space between each note in the verse and the chorus means to
sustain those notes until the chord changes (Listen to the song to find out
when it changes). 

e|-------------------------------------------------------------------------|
B|-------------------------------------------------------------------------|
G|--------------8----------------------------------------------------------|
D|--3-----8-----8----6-----------------------------------------------------|
A|--3-----8-----6----6-----------------------------------------------------|
E|--1-----6----------4-----------------------------------------------------|


Pre-Chorus

e|-------------------------------------------------------------------------|
B|-------------------------------------------------------------------------|
G|-------------------------------------------------------------------------|
D|--1010101010101010--55555555--88888888--33333333-------------------------|
A|--1010101010101010--55555555--88888888--33333333-------------------------|
E|--8-8-8-8-8-8-8-8---33333333--66666666--11111111-------------------------|


Chorus

e|-------------------------------------------------------------------------|
B|-------------------------------------------------------------------------|
G|----------------7-----------------------------7--------------------------|
D|--10-----5------7------7--------10-----5------7------7-------------------|
A|--10-----5------5------7--------10-----5------5------7-------------------|
E|--8------3------5------5--------8------3------5------5-------------------|

The outro to the song is the same chord progression as the Pre-Chorus. You
can figure out the strum patterns by listening to the song. Hope this tab 
helps (might not be correct on some parts though lol). But I have a pretty 
good ear and I'm almost positive that this tab is correct.


| /  slide up
| \  slide down
| h  hammer-on
| p  pull-off
| ~  vibrato
| +  harmonic
| x  Mute note
===========================================================================
            
Submit corrections

comments powered by Disqus
↑ Back to top | Tait Tabs for Lose This Life. Lyrics for acoustic guitar and electric guitar. Tablatures and chords are parodies/interpretations of the original songs. You may use it for private study, scholarship, research or language learning purposes only