>
 >
Yellow Butterfly

Yellow Butterfly Guitar Tabs

Tahiti 80 - Yellow Butterfly chords, tabs, tablatures, lyrics

Guitar lessons | Add/correct | Request | Top 50 tabs Artists:  A B C D E F G H I J K L M N O P Q R S T U V W X Y Z 0-9

Yellow Butterfly Guitar Tabs – Tahiti 80

CD, Sheet music, Poster

Do you like Yellow Butterfly? Share with your friends now
Tabs
----------------------------------------------------------------------------
----------------------------------------------------------------------------

Tuning:Standard

e|-------------------------------------------------------------------4-----|
B|--5--------3-----5-----5---------------5--------6-----7-----5--------5---|
G|--6--------2-----4-----6---------------6--------5-----6-----6--------6---|
D|--6--------4-----5-----6---------------6--------6-----7-----6------------|
A|----------2-----3------------------------------4-----5-----------0-------|
E|-5--------------------5-----0-2-4-0---5--------------------5-------------|
 Intro (Opening chords played bossa nova style with fingers)
e|-------------------------------------------------------------------------|
B|---9-----11---------5---------5------------------------------------------|
G|---8-----10---------7----6----7----6-------------------------------------|
D|---9-----11----9----7----7----7----7-------------------------------------|
A|--7-----9------9----5----7----5----7-------------------------------------|
E|---------------7---------5---------5-------------------------------------|

e|-----------7-----------------------|-------8------8-----8-----8----------|
B|----10----------------7-------8----|-------------------------------------|
G|-------9-----7/--------------------|-----9------9-----9-----9------------|
D|----------------6-6/7---7-7/9---9--|--10-----10----10----10--------------|
A|--0------0------0-0-----0-0-----0--|-------------------------------------|
E|-----------------------------------|-------------------------------------|
 
e|--5----7----5----5----5----7----5-----|----------------------------------|
B|--6----8----6----6----6----8----6-----|----------------------------------|
G|--5----7----5----7----5----7----5-----|----------------------------------|
D|--7----9----7----7----7----9----7-----|----------------------------------|
A|--5----7----5----5----5----7----5-----|--0-0-0-0-0-0-0-0-00000-----------|
E|--------------------------------------|--5-5-5-5-5-5-5-5-55555-----------|
 (Strum chords) Don't waste your time... I think you should know better...
e|--------------------3\---------------------------1-0---------5\----------|
B|--7-----------------5\-----------------------------1~--------7\----------|
G|--6-----------------4\-------------------------2-------------5\----------|
D|--7----------------------------------------------------------7\----------|
A|--5------------------------------------------0---------------5\----------|
E|-------------------------------------------------------------------------|
 Breakdown (Delay pedal) In the back of my mind...
e|-----0------0----------5----------5---------5----5-----------------------|
B|-------7~-------------6----------7----------6----6-----------------------|
G|---------------------5----------6-----------5----7-----------------------|
D|---7----------------7----------7------------7----7-----------------------|
A|-5-----------------5----------5-------------5----5-----------------------|
E|-------------------------------------------------------------------------|
                                              Start strumming
Then repeat the riff for "I think you should know better..."

That is pretty much it. The full tab for an awesome song. Have fun! Merci!


| /  slide up
| \  slide down
| h  hammer-on
| p  pull-off
| ~  vibrato
| +  harmonic
| x  Mute note
============================================================================





Comments


Popular Tahiti 80 tabs & chords
1,000 Times Chords
A Love From Outer Space Chords
Easy Chords
1,000 Times Tabs
A Love From Outer Space Tabs
Better Days Will Come Tabs
Heartbeat Tabs
Listen Tabs
1000 Times Ukulele
A Love From Outer Space Ukulele


Song lyrics



↑ Back to top | Tablatures and chords are parodies/interpretations of the original songs. You may use it for private study, scholarship, research or language learning purposes only
© 2014 AZChords.com Contact us | Privacy policy | DMCA | Add/correct tabs | Request tabs | Top 50 tabs