» » »

Tahiti 80, Soul Deep Tabs (ver.1)

Artists:  A B C D E F G H I J K L M N O P Q R S T U V W X Y Z # 

Soul Deep Tabs (ver.1)

Tahiti 80 Tabs
Rating:
0/5 (0 votes)
Soul Deep lessons Tabs too difficult? Try these video lessons and learn fast
                ----------------------------------------------------------------------------
----------------------------------------------------------------------------

Tuning: Standard

e|----------------------|--/10-8-------|------------|----------------------|
B|---8----6----8----6---|--------11-8--|---6----8---|-8-8-8-8-8-8-8-8------|
G|---7----7----8----7---|--------------|---7----7---|-7-7-7-7-7-7-7-7------|
D|---8----7----8----7---|--------------|---7----8---|-8-8-8-8-8-8-8-8------|
A|---6----x----x----x---|--------------|---x----6---|-6-6-6-6-6-6-6-6------|
E|--------6----8----6---|--------------|---6--------|----------------------|
                         Flute part     Chorus (repeat many times)
e|----10------------------------|------------------------------------------|
B|----11------------------------|-----8--------6-----------5-------6--5----|
G|----12------------------------|----7--------5-----------4--------5--4----|
D|------------------------------|---8--------7-----------5---------6--6----|
A|------------------------------|--6--------5-----------3------------------|
E|------------------------------|------------------------------------------|
Guitar 2 chord over intro chords. (2nd time chorus ends with these chords)
e|-------------------------------------------------------------------------|
B|--13------11------------------8--------------13------11------------------|
G|--12------10------------------9--------------12------10------------------|
D|-------------------------------------------------------------------------|
A|-------------------------------------------------------------------------|
E|-------------------------------------------------------------------------|
 "I only want you to try something new..." (strum the notes)
e|-------------------------------------------------------------------------|
B|-------------------------------------------------------------------------|
G|--------------------------------------------------7/8\7----7-------------|
D|--------------------------------------------------------10---8~----------|
A|------5/6\5---5~----/10-8-----------5/6\5---5~---------------------------|
E|--6~--------8--------------6h8--6~--------8-----8------------------------|
  Solo

I think the actual song is tuned 1/2 step down, but I tabbed it out without
tuning down. So have fun! Merci!

| /  slide up
| \  slide down
| h  hammer-on
| p  pull-off
| ~  vibrato
| +  harmonic
| x  Mute note
============================================================================
            
Submit corrections

comments powered by Disqus
↑ Back to top | Tahiti 80 Tabs for Soul Deep. Lyrics for acoustic guitar and electric guitar. Tablatures and chords are parodies/interpretations of the original songs. You may use it for private study, scholarship, research or language learning purposes only