» » »

Tahiti 80, A Love From Outer Space Tabs (ver.1)

Artists:  A B C D E F G H I J K L M N O P Q R S T U V W X Y Z # 

A Love From Outer Space Tabs (ver.1)

Tahiti 80 Tabs
 Rating:
4/5 (4 votes)
A Love From Outer Space lessons Tabs too difficult? Try these video lessons and learn fast
                ----------------------------------------------------------------------------
----------------------------------------------------------------------------

Tuning: Standard

e|-------------------------------------------------------------------------|
B|--5-----5-----5----5-----5-----5----6-----6-----6----8-----8-----8-------|
G|----5-----5-----5----5-----5-----5----5-----5-----5----7-----7-----7-----|
D|------7-----7----------7-----7----------7-----7----------9-----9---------|
A|-------------------------------------------------------------------------|
E|-------------------------------------------------------------------------|

e|--7-----------------5-----------------3-----------------|
B|--8-----------------6-----------------5-----------------|
G|--7-----------------5-----------------4-----------------|
D|--9-----------------7-----------------5-----------------|
A|--7-----------------5-----------------3-----------------|
E|--------------------------------------------------------|
 I know where she's coming from.....
e|-------------------------------------------------------------|
B|--10--------------13-------------10------------13------------|
G|-------------------------------------------------------------|
D|-------------------------------------------------------------|
A|-------------------------------------------------------------|
E|-------------------------------------------------------------|
  (volume swells with each note)
e|-----------------------------------------------|
B|----------------------------18~-17~-18p17~-----|
G|-----------------------------------------------|
D|-17-19p17h19-17-19p17h19p17--------------------|
A|-----------------------------------------------|
E|-----------------------------------------------|
 Outro Solo Riff (Repeat many times)

| /  slide up
| \  slide down
| h  hammer-on
| p  pull-off
| ~  vibrato
| +  harmonic
| x  Mute note
============================================================================
            
Submit corrections

comments powered by Disqus
↑ Back to top | Tahiti 80 Tabs for A Love From Outer Space. Lyrics for acoustic guitar and electric guitar. Tablatures and chords are parodies/interpretations of the original songs. You may use it for private study, scholarship, research or language learning purposes only