» » »

Tahiti 80, 1,000 Times Tabs (ver.1)

Artists:  A B C D E F G H I J K L M N O P Q R S T U V W X Y Z # 

1,000 Times Tabs (ver.1)

Tahiti 80 Tabs
 Rating:
4/5 (4 votes)
1,000 Times lessons Tabs too difficult? Try these video lessons and learn fast
1
                ----------------------------------------------------------------------------
                             1000 TIMES - Tahiti 80
----------------------------------------------------------------------------

Tuning: Standard

e|---------------------------|-16-14--12-14-16-----12--16--14-12-14-12--11~|
B|--10-----12-----10-----9---|------------------14-------------------------|
G|--9------11-----9------8---|---------------------------------------------|
D|--11-----13-----11-----9---|---------------------------------------------|
A|--9------11-----9------7---|---------------------------------------------|
E|---------------------------|---------------------------------------------|
 Piano chords                 Orchestra part
e|--7/9-12-7h9p7----------------|--2-----4-----2---------------------------|
B|---------------9~--7-9~-7-5~--|--2-----4-----2-----9---------------------|
G|---------------8~--8-9~-8-4~--|--2-----4-----2-----8---------------------|
D|------------------------------|--2-----4-----2-----9---------------------|
A|------------------------------|--x-----x-----x-----7---------------------|
E|------------------------------|--2-----4-----2---------------------------|
 Opening solo                    Main chords
e|--------------------------------|--------12-12---------------------------|
B|---9-----7-----3-----7----------|--12-14-------14----12-14\9~-7-9~--10-9~|
G|---8-----7-----4-----6----------|-----------------13-------9~-8-9~--11-9~|
D|---9-----7-----4-----7----------|----------------------------------------|
A|---7-----x-----x-----5----------|----------------------------------------|
E|---------7-----3----------------|----------------------------------------|
 Breakdown: "Our time will come..." Solo
e|-------12-12-------------------------11----------------------------------|
B|-12-14-------14----12-14\9~-7-9~-----12-12~------------------------------|
G|----------------13-------9~-8-9~-/13----13~------------------------------|
D|-------------------------------------------------------------------------|
A|-------------------------------------------------------------------------|
E|-------------------------------------------------------------------------|
 Solo continued...
e|--19-19-19--19-19--19-17--15-17-19-----15-19-17--15-17-15-14-------------|
B|------------------------------------17-----------------------------------|
G|-------------------------------------------------------------------------|
D|-------------------------------------------------------------------------|
A|-------------------------------------------------------------------------|
E|-------------------------------------------------------------------------|
 Orchestra part at the very end

That's it! Merci!

| /  slide up
| \  slide down
| h  hammer-on
| p  pull-off
| ~  vibrato
| +  harmonic
| x  Mute note
============================================================================
            
Submit corrections

comments powered by Disqus
↑ Back to top | Tahiti 80 Tabs for 1,000 Times. Lyrics for acoustic guitar and electric guitar. 1 Tablatures and chords are parodies/interpretations of the original songs. You may use it for private study, scholarship, research or language learning purposes only