» » »

Tagtraum, Startplatz Bass tabs (ver.1)

Artists:  A B C D E F G H I J K L M N O P Q R S T U V W X Y Z # 

Startplatz Bass tabs (ver.1)

Tagtraum Tabs
 Rating:
4/5 (4 votes)
Startplatz lessons Tabs too difficult? Try these video lessons and learn fast
                Tagtraum – Startplatz

Intro
G------------------|
D------------------|
A-----7...-5...----|
E-5...---------6...|   / beim 1. x3   / beim 2. x4

G-----------------|
D-----------------|
A-5-5-5-5-5-5-5-5-|
E-----------------|

Verse
G----------------------------------|
D----------------------------------|
A-5...-3...-------3-5...-3..-/7...-|
E---------0...-0-5-----------------|x2

Verse End
G---------------------------------|
D---------------------------------|
A-----5...-7...-3...----5...-7...-|
E-3...--------------3...----------|x2

Chorus
G----------------------------------------------------------------|
D----------------------------------------------------------------|
A-3...-5...-7...-10...-7...-5...-3...-2...-3-3-3----5---------55-|
E-----------------------------------------------320--5...-7...---|

G-----------------------------------------------|
D-----------------------------------------------|
A-3...-5...-7...-10...-7...-5...-3...-2...-5...-|
E-----------------------------------------------|

Bridge
G----------------------------------------|
D----------------------------------------|
A-3...-3/7...-10-9-7--3...-3-5-7-7-77-55-|
E----------------------------------------|

Outro
G------------------------------------|
D------------------------------------|
A--7-7-10-9-7--7---7-7-10-9-9\7--7---|
E-0-----------7---0-------------7-0~-|
            
Submit corrections

comments powered by Disqus
↑ Back to top | Tagtraum Bass for Startplatz. Lyrics for acoustic guitar and electric guitar. Tablatures and chords are parodies/interpretations of the original songs. You may use it for private study, scholarship, research or language learning purposes only