» » »

So Ein Leben Bass tabs (ver.1)

Artists:  A B C D E F G H I J K L M N O P Q R S T U V W X Y Z # 

So Ein Leben Bass tabs (ver.1)

Tagtraum
Rating:
0/5 (0 votes)

Hard to play? Try these video lessons and learn fast.
                Tagtraum – So ein Leben

Intro

G----------------------------------------------------------4...-7...-|
D------------------------3...-2...---------------------3...----------|
A-----------3...-2...---------------------3...-2...------------------|
E-1/5-1/5...---------3...---------0-1/5...---------3...--------------|

G--------------------------5...-------------------------------------------|
D-7...-10...-9...-5...-3...----5...-2...-7...-10...-9...-5...-3-2-0-------|
A------------------------------------------------------------------3-2-0--|
E-----------------------------------------------------------------------3-|

Verse

G-----------------------------------            G------|
D-----------------------------------            D-3...-|
A-----------------------------------            A------|
E-5...-0-7/10\3...-5...-0-7/10\3...-   x2       E------|

Chorus

G-----------------------------------------------------------------------|
D-----------------------------------------------------------------------|
A--------------------7...-75--------------------------------------------|
E-1...-5...-1...-0...---------75-1...-5...-333-0-333-0-333-0-333-0-1111-|

End

G---
D---
A---
E-5~
            
Hard to play? Try these video lessons and learn fast. | Correct




comments powered by Disqus
↑ Back to top | Tablatures and chords are parodies/interpretations of the original songs. You may use it for private study, scholarship, research or language learning purposes only