» » »

Tagtraum, Halt Mich Fest Bass tabs (ver.1)

Artists:  A B C D E F G H I J K L M N O P Q R S T U V W X Y Z # 

Halt Mich Fest Bass tabs (ver.1)

Tagtraum Tabs
 Rating:
4.2/5 (5 votes)
Halt Mich Fest lessons Tabs too difficult? Try these video lessons and learn fast
                Tagtraum – Halt mich fest

Intro
G--------------------------|
D--------------------------|
A-10...-9...-7...-9...-----|
E---------------------9...-|x2

Verse (Part1)
G------------|
D------------|
A-----5...---|
E-3...-------|x4

Verse (Part2)
G--------|
D--------|
A-7-7-97-|
E--------|   /x4

G-----------|
D-------5---|
A-5...-3-55-|
E-----------|   /x1

Bridge
G----------------------|
D------------------12~-|
A--3/5-3-7-5--5/10~----|
E-3--------------------|

G------------------------|
D------------------------|
A-----5...-7...----------|
E-3...---------7...-9-10-|   /x2

Chorus
G------------------------------|
D------------------------------|
A-----5...-/121212-101010-999--|
E-3...-------------------------|

G-----------------------------|
D-----------------------------|
A-7...-10-1010-99-77----------|
E-------------------7...-9-10-|

Outro
G-------|
D-------|
A-----5-|
E-3~-3--|
            
Submit corrections

comments powered by Disqus
↑ Back to top | Tagtraum Bass for Halt Mich Fest. Lyrics for acoustic guitar and electric guitar. Tablatures and chords are parodies/interpretations of the original songs. You may use it for private study, scholarship, research or language learning purposes only