>
 >
Wedding Dress

Wedding Dress Guitar Tabs

Taeyang - Wedding Dress chords, tabs, tablatures, lyrics

Guitar lessons | Add/correct | Request | Top 50 tabs Artists:  A B C D E F G H I J K L M N O P Q R S T U V W X Y Z 0-9

Wedding Dress Guitar Tabs – Taeyang

CD, Sheet music, Poster

Do you like Wedding Dress? Share with your friends now
ChordsTabsTabs v2Ukulele
1-3-------------------0-------0-----0-|1-0-0-------3------3-------------------0---|
2-------0---1-1-----1-----1-3---------|--------3-----1-3--------0---1-1-----1-----|
3-----2---2-------2-----2---------0---|-----------------------2---2-------2-------|
4---2-----------3---------------2-----|---------------------2-----------3---------|
5-0---------------------------3-------|-------------------0-----------------------|
6-------------------------------------|------3---3--------------------------------|


1-3-------------------0-------0-----0-----3-3-|------------------------------------|
2-------0---1-1-----1-----1-3---------1-3-----|------------------------------------|
3-----2---2-------2-----2---------0-----------|------------------------------------|
4---2-----------3---------------2-------------|------------------------------------|
5-0---------------------------3---------------|------------------------------------|
6---------------------------------------------|------------------------------------|


1-----------------------------------------------------------------0-1-------------|
2--1-1-1-1-1-1-1-1--------1-1-1--1-1-1--1-1--------1-1-1--1-3-1-------3-1-3-1-----|
3--------------------2------------------------2-----------------------------------|
4--------------------------3------------------------------------------------------|
5-0-------------------------------------------------3-----------------------------|
6---------------------------------------------------------------------------------|


1-------------------------------------------0-1-0---------------------------------|
2---1-1-1-1-1-1----------1-----1-1-1--1-3-1---------1--------1=1=1=-1-1-1---1-1-1-|
3---------------2-2-2-2----2--------------------------2-0-----------------2-------|
4-----------------3-3-3-----------------------------------------------------------|
5-0--------------------------3----------------------------0-----------------------|
6---------------------------------------------------------------------------------|


1-------0----0-0-----------0------------------------------------0-0-0-0-----------|
2---1-3----------1--3-3-3----3-1------------3-1--1-1-1-3-3-1----------------3-1---|
3-2--------------------------------2--0-0-0-------------------0---------0-0-------|
4---------------------------------------------------------------------------------|
5---------3---------------------------0--------------------------3-3-3------------|
6---------------------------------------------------------------------------------|


1-----3--0----------------------------------------------3--0----------------------|
2----------------1---1---1------1--1--1--1-h3-3-1-1-1-1------------1---1---1------|
3----------------------------2-------------------------------------------------2--|
4----------0-2-3---------------------------------------------0-2-3----------------|
5-0-3--------------3---3---3-----3--3--3-----------------------------3---3---3----|
6---------------------------------------------------------------------------------|


1----------------------------3-3-1-0--------------------0--0-0-0-0-1-0------------|
2-1---1---1--1-h3-0--0-0-0-0--------3---1---1---1-3--3---------------3-1--1-1-----|
3-------------------------------------2---2---2-----------------------------------|
4---------------------------------------3---3---3---------------------------------|
5---3---3--3-------------3-0-------------------------3--------------------3-3-----|
6---------------------------------------------------------------------------------|

1-3-3-1-0--------------------0--0-0-0--1-3-5-3------------------------------0-----|
2---------3---1---1---1-3--3----------------------3-1-1-----3-1-1---1---1-3-------|
3-----------2---2---2-------------------------0-0---------2-------2---2-----------|
4-------------3---3---3-----------------------------------------3---3---3---------|
5-0------------------------3----------------------------0-------------------------|
6---------------------------------------------------------------------------------|


1-----0-3-0-5-3--------------------------------0---0--------------|---------------|
2-------------------3-1-1----3-1-1---1---1-1-1---3---3-----3-1-1--|---------------|
3---------------0-0--------2-------2---2---------------0-0--------|---------------|
4--------------------------------3---3---3------------------------|---------------|
5------------------------0------------------3---------------------|---------------|
6-----------------------------------------------------------------|---------------|


1--------------------------------------------------------------0-1----------------|
2--1-1-1--1-1-1--1-1--------1-1-1--1-1-1--1-1-----1-1-1--1-3-1-----3-1-3-1--------|
3--------------------2------------------------2-----------------------------------|
4--------------------------3------------------------------------------------------|
5-0---------------------------------------------3---------------------------------|
6--------------------------------------------------------------3-3----------------|


1------------------------------------------0-1-0----------------------------------|
2---1-1-1-1-1-1----------1----1-1-1--1-3-1---------1--------1-1-1--1-1-1---1-1-1--|
3---------------2-2-2-2----2-------------------------2-0-----------------2--------|
4-----------------3-3-3----------------------------------------------------3------|
5-0------------------------------------------------------0------------------------|
6---------------------------------------------------------------------------------|


1-------0----0-0-----------0------------------------------------0-0-0-0-3-1-0-----|
2---1-3----------1--3-3-3----3-1------------3-1--1-1-1-3-3-1------------------3---|
3-2--------------------------------2--0-0-0-------------------0-------------------|
4---------------------------------------------------------------------------------|
5----------3-------------------------0---------------------------3-3-3------------|
6---------------------------------------------------------------------------------|


1-----3--0--------------------------------------------3--0------------------------|
2----------------1---1---1------1--1--1--1-h3-3------------------1---1---1--------|
3----------------------------2------------------2-2-2------------------------2----|
4----------0-2-3-------------------------------------------0-2-3------------------|
5-0-3--------------3---3---3-----3--3--3---------------------------3---3---3------|
6---------------------------------------------------------------------------------|


1--------------------------3-3-1-0--------------------0--0-0-0-0-1-0--------------|
2-1---1---1--1->3-0--0-0-0---------3---1---1---1-3--3----------------3-1--1-1-----|
3------------------------------------2---2---2------------------------------------|
4--------------------------------------3---3---3----------------------------------|
5---3---3--3-------------3-0------------------------3---------------------3-3-----|
6---------------------------------------------------------------------------------|


1-3-3-1-0--------------------0--0-0-0--1-3-5-3-------------------------------0----|
2---------3---1---1---1-3--3-----------------------3-1-1-----3-1-1---1---1-3------|
3-----------2---2---2--------------------------0-0---------2-------2---2----------|
4-------------3---3---3------------------------------------------3---3---3--------|
5-0------------------------3-----------------------------0------------------------|
6---------------------------------------------------------------------------------|


1--0-3-0-5-3-------------------------------0---0------------||--------------------|
2---------------3-1-1----3-1-1---1---1-1-1---3---3-----3-1-1||--------------------|
3-----------0-0--------2-------2---2---------------0-0------||--------------------|
4----------------------------3---3---3----------------------||--------------------|
5---------------------0------------------3------------------||--------------------|
6-----------------------------------------------------------||--------------------|


1-----------------0-----------------------0--------------0-1-0-------------0------|
2-----1-1-------------0-------3---1-----------0--------1-------1-1-0-1-3----------|
3-0-------------0---0---0--0------------0---0---0--0-------------------------0----|
4---2------------------------------------------------2----------------------------|
5-3-----3---3-3-----------------3---3-3------------3---------------------3--------|
6--------------------------3------------------------------------------------------|


1----------------------0------------------------------------5-3-0--------------3--|
2-3--------1-1-1-3-3-1--------1-1-1-3-3-1----1-1-3-3-1-1-1---------3-3---1-1-1----|
3---0-------------------------------------2---------------------------------------|
4--------------------------3------------------------------------------------------|
5------0------------------------------------3--------------------------0----------|
6---------------------------------------------------------------------------------|


1--------3--------3------5-3-3-3-0--0-3-0-5-3-----|-3-3-1-0-------------------0--0-|
2-1-1--1---1-1--1---1-1---------------------------|---------3---1---1---1-3-3------|
3-------------------------------------------------|-----------2---2---2------------|
4-------------------------------------------------|-------------3---3---3----------|
5-------------------------------------------------|-0-----------------------3------|
6-------------------------------------------------|--------------------------------|


1-0-0-0-1-0-----------3-3-1-0---------------------0--0-0-0--1-3-5-3----------------|
2-----------3-1--1-1-----------3---1---1---1-3--3-----------------------3-1-1----3-|
3--------------------------------2---2---2--------------------------0-0--------2---|
4----------------------------------3---3---3---------------------------------------|
5----------------3-3--0-------------------------3----------------------------0-----|
6----------------------------------------------------------------------------------|


1-------------0--0-3-0-5-3-----------------------------------0---0-----------||And then
2-1---1---1-3--------------------3-1-1----3-1-1---1---1-1-1---3---3----3--1--||go back
2---2---2--------------------0-0--------2-------2---2---------------0--------||to the
4-3---3---3-----------------------------------3---3---3----------------------||intro
5--------------------------------------0------------------3------------------||2x
6----------------------------------------------------------------------------||





Comments


Popular Taeyang tabs & chords
I Need A Girl Intro Chords
Wedding Dress Chords
Where You At Chords
I Need A Girl Tabs
Wedding Dress 1 Tabs
Wedding Dress Intro Tabs
Where You At Intro Tabs
Wedding Dress Ukulele
Where You At Ukulele


Song lyrics



↑ Back to top | Tablatures and chords are parodies/interpretations of the original songs. You may use it for private study, scholarship, research or language learning purposes only
© 2014 AZChords.com Contact us | Privacy policy | DMCA | Add/correct tabs | Request tabs | Top 50 tabs