» » »

Tabithas Secret, Here Comes Horses Tabs (ver.1)

Artists:  A B C D E F G H I J K L M N O P Q R S T U V W X Y Z # 

Here Comes Horses Tabs (ver.1)

Tabithas Secret Tabs
 Rating:
4.2/5 (5 votes)
Here Comes Horses lessons Tabs too difficult? Try these video lessons and learn fast
1
                
Band: Here Comes Horses


The "Don't Play With Matches" record? By Tabithas's Secret? Ha ha! Anyway. I
just added a few things (intro and solo) and corrected any mistakes along the
way, but if you wanna play it exactly as they do on the record, go get another
tab.

(intr0)
e |--------|------------|---------------------|
b |--------|------------|---------------------|
g |--------|------------|-0-0-2-0-2h4-2-0-----|
d |--------|-0------0h2-|-----------------2-0-|
a |----0h2-|------------|---------------------|
e |--------|------------|---------------------|

(verse)
G
Help me to remember, girl, if you don't mind

'Cause I feel just like the jester when the music died
C
Haven't seen you lately,
        G
But I know that nothing's changed
G
Feeling kinda shaky but the wounds have healed

There's a crack there in the doorway where the walls
                         C
have peeled And I still see the sun go down
       G
on a clear day

(chorus)
           F
Here comes horses
C              G
There goes the rain
                   C              G
Here goes nothing, here it comes again


(verse)
I was thinking I was angry but I'll let it go
I was waiting on a miracle but nothing showed
And they say our new messiah
is at the local bar
Greetings from the homefront have you
heard the news, That daddy bet his paycheck
on the horses shoes
and we won't feel that way
for a long long time

(chorus)

(solo under verse/chorus progression)

(verse)
Sitting in a taxi at the evenings end
I was trying to remember where it was I'd been and
Whether I've got someplace else to be
I ask you why you come here; you say just because
I guess I could do without it if I knew what it was, well
It really doesn't matter, when you look at me that way

(chorus) x2

SOLO:

e|------------------------------|
b|-12----12-10---10-10-10\8--8--|  x2
g|------------------------------|
d|------------------------------|
a|------------------------------|
e|------------------------------|

e|-----------------------------------------------------------------------|
b|-7-7-------------------------------------------------------------------|
g|-----7-7\5--5-4-5---5-4-0h2--2---0-0-----------------------------------|
d|-----------------------------------------------------------------------|
a|-----------------------------------------------------------------------|
e|-----------------------------------------------------------------------|
(fill in the rest yourself)
e|-----------------------------------------------------------------------|
b|-----------------------------------------------------------------------|
g|-----------------------------------------------------------------------|
d|-----------------------------------------------------------------------|
a|-----------------------------------------------------------------------|
e|-----------------------------------------------------------------------|

e|-----------------------------------------------------------------------|
b|-----------------------------------------------------------------------|
g|-----------------------------------------------------------------------|
d|-----------------------------------------------------------------------|
a|-----------------------------------------------------------------------|
e|-----------------------------------------------------------------------|

e|-----------------------------------------------------------------------|
b|-----------------------------------------------------------------------|
g|-----------------------------------------------------------------------|
d|-----------------------------------------------------------------------|
a|-----------------------------------------------------------------------|
e|-----------------------------------------------------------------------|
            
Submit corrections

comments powered by Disqus
↑ Back to top | Tabithas Secret Tabs for Here Comes Horses. Lyrics for acoustic guitar and electric guitar. 1 Tablatures and chords are parodies/interpretations of the original songs. You may use it for private study, scholarship, research or language learning purposes only