>
 >
Hordaland Doedskvad Part Iii

Hordaland Doedskvad Part Iii Guitar Tabs

Taake - Hordaland Doedskvad Part Iii chords, tabs, tablatures, lyrics

Guitar lessons | Add/correct | Request | Top 50 tabs Artists:  A B C D E F G H I J K L M N O P Q R S T U V W X Y Z 0-9

Hordaland Doedskvad Part Iii Guitar Tabs – Taake

CD, Sheet music, Poster

Do you like Hordaland Doedskvad Part Iii? Share with your friends now
Tabs
Tuning E A D G B E

Riff 1a
|-----------------------------------------^-----------|
|------------------0---1--------------4---5-----------| 
|----------1---2-------------------1------------------|
|--2---2-------------------2---2------------------1---|  
|--0-----------------------0-----------------2--------|
|-----------------------------------------------------|

Riff 1b
|-------------------------------------------|
|---------------0---1-0---------------------| 
|--------1--2------------2p--1p--[2]--------| 
|--2--2-------------------------------------|  
|--0----------------------------------------|
|-------------------------------------------|

Riff 1c
|------------------------------------------|
|------------------------------------------| 
|----------2-------------------------------| 
|--2---2------2-p1-------------------------|  
|--0----------------2----1-----------------|
|------------------------------------------|





------||-------------------------------------------------------------------|
------||-------------------------------------------------------------------| 
------||--5------------------4--5-------------------5---------------4--5---| 
--2---||--"--7---0---5---7---"--"--7--0---5--6---7--"--7---0--5--7--"--"---|  
--0---||-----"---"---"---"---------"--"---"--"---"-----"---"--"--"---------|
--0---||-------------------------------------------------------------------|

                    x2                     x1       
----------------------|-----------------------|
---5---3--------------|--5--3p5p3p------------| 
---"---"--4-------4---|--"--"-"-"--4---4--5-^-| 
----------"---5---"---|------------"-5-"----7-|  
--------------"-------|--------------"--------|
----------------------|-----------------------|

Riff 3                                                               x7            
|----------------------------------------------------------------------|
|----------------------2---3---5--3---0--1-----------------------------| 
|--5---4---2---4---2---"---"---"--"---"--"--3-2--0-1--2--0-------------| 
|--"---"---"---"---"------------------------"-"--"-"--"--"--3--0---2---|  
|-----------------------------------------------------------"--"--="---|
|----------------------------------------------------------------------|

Riff 4                                       x5                                      
|-----------------------------------------[1^]-|
|----------------------------------------------| 
|--------------2--0-----2---3--5-3--2--0-------| 
|--3--2--0--2--"--"--3--"---"--"-"--"--"---2---|  
|--"--"--"--"--------"---------------------"---|
|----------------------------------------------|

Play Riff 3 x 2

Riff 5                                                      x7
|---------------------------------------[3]--------------------|
|-----------5--------------^---------5---"---------------------| 
|--5--4--5--"-----------5--5---4--5--"-------------------------| 
|--"--"--"-----5--4--5--"--"---"--"------------------5---[3]---|  
|--------------"--"--"----------------------6--5--6--"----"----|
|-------------------------------------------"--"--"------------|

Riff 6 - Fill 2                             x1 
|---------------------|-----------------------|
|---------------------|-----------------------| 
|--2--2---2-2---2-2---|--0--2-----------------| 
|--2--2---2-2---2-2---|--0--2----2---3--------|  
|--0--0---0-0---0-0---|--0--0----2---3--------|
|---------------------|----------0---1--------|
   .  .   . .   . .              

Riff 7                                                                    x3
|----------------------------------------|----------------------------------|
|----------------------------------------|----------------------------------| 
|-------------------------------1--2-----|----------------------------------| 
|--2-2--2--2p3--2-2--2--2p3--2-----------|--2-2---2--2p3--------------------| 
|--0-0----------0-0----------------------|--0-0-----------2p4p2--2p3--0--2--|
|----------------------------------------|----------------------------------|
   . .           . .                        . .   

Riff 8 - Outro                            x2                                x1
|-------------------------------------------|--3-----------3------------------|
|-------------------------------------------|------3--1------2--1-------------|  
|-------------------------------------------|---------------------------------| 
|-------------------------------------------|---------------------------------|  
|--3---1---2---3-----3---1----2--3---2---=--|---------------------------------|
|--5---3---0---0-----5---3----0--0---0------|---------------------------------|
   "   "   "   "     "   "    "  "   "

Gtr 2, (Riff near the end.)             x2
|--------3------------3-----------^--[4^]-|
|---5----"---5----5---"---5---4--4--------| 
|---"--------"----"-------"---"-----------| 
|-----------------------------------------|  
|-----------------------------------------|
|-----------------------------------------|



well.. my first Tab.





Comments


Popular Taake tabs & chords
Doedskvad Part 3 Tabs
Nattestid Tabs
Nattestid Part 1 Tabs
Voldtekt Intro Tabs


Song lyrics



↑ Back to top | Tablatures and chords are parodies/interpretations of the original songs. You may use it for private study, scholarship, research or language learning purposes only
© 2014 AZChords.com Contact us | Privacy policy | DMCA | Add/correct tabs | Request tabs | Top 50 tabs