» » »

Toxicity Tabs (ver.6)

Artists:  A B C D E F G H I J K L M N O P Q R S T U V W X Y Z # 

Toxicity Tabs (ver.6)

System Of A Down
Rating:
0/5 (0 votes)

Hard to play? Try these video lessons and learn fast.
                (Live)
(Outro)
I tabbed this from a video I got of system playing this live at
big day out. (Thanx Dave!!).

I know systems tuning is CGCFAD (low to high) but if u cant b arsed
to tune down u can play it in standard (EADGBE) which i tabbed at the bottom of this page.

d/-----------------------/------------------------
A/-----------------------/------------------------
F/-----------------------/------------------------
C/----4----5---4-----4---/-----4-----5---4--------
G/-5----5----------5-----/---5----5----------5-0--
C/-----------------------/------------------------

d/-----------------------/------------------------
A/-----------------------/------------------------
F/--------0-----------0--/-------0-----------0----
C/----4------2-----4----2/----4-----2-----4-----2-
G/-2------------2--------/-2-----------2----------
C/-----------------------/------------------------
(all of the obove X4)

The following may be palm muted, im not sure.
Strum these chords randomly for the next 4 bars

d/---/---/
A/---/---/
F/-5-/-4-/
C/-2-/-2-/
G/-0-/-0-/
C/---/---/
"10,000 years ago..."

Then do this...
d/-----------------/
A/-----------------/
F/---------------0-/
C/-4-4-4-4-4-4-4-4-/
G/-5-5-5-5-5-5-5-5-/
C/-----------------/
PM . . . . . . . .

d/-------------------------/
A/-------------------------/
F/--------0----------0-----/
C/-----4----4-----4------4-/
G/--5----------5-----------/
C/-------------------------/ X4
"Goodbye, Blue Sky..."

d/-------------------------/
A/-------------------------/
F/--------0-----------0----/
C/-----4-----4-----4-----4-/
G/--2-----------2----------/
C/-------------------------/ X4
"Goodbye"

d/-------------------------/
A/-------------------------/
F/--------0----------0-----/
C/-----4----4-----4------4-/
G/--5----------5-----------/
C/-------------------------/ X4
"Goodbye, Blue Sky..."

d/-------------------------/
A/-------------------------/
F/--------0-----------0----/
C/-----4-----4-----4-----4-/
G/--2-----------2----------/
C/-------------------------/ X4


Here its is in standard tuning (low to high EADGBE)

e/-----------------------/------------------------
B/-----------------------/------------------------
G/-----------------------/------------------------
D/----2----3---2-----2---/-----2-----3---2--------
A/-3----3----------3-----/---3----3----------3----
E/-----------------------/----------------------3-

e/-----------------------/------------------------
B/-----------------------/------------------------
G/-----------------------/------------------------
D/----2---3--2----2--3--2/----2--3--2-----2--3--2-
A/-0------------0--------/-0-----------0----------
E/-----------------------/------------------------
(all of the obove X4)

The following may be palm muted, im not sure.
Strum these chords randomly for the next 4 bars

e/---/---/
B/---/---/
G/-3-/-2-/
D/-0-/-0-/
A/-x-/-x-/
E/-3-/-3-/
"10,000 years ago..."

Then do this...
e/-----------------/
B/-----------------/
G/-----------------/
D/-2-2-2-2-2-2-2-2-/
A/-3-3-3-3-3-3-3-3-/
E/-----------------/
PM . . . . . . . .

e/-------------------------/
B/-------------------------/
G/-------------------------/
D/-----2--3--2----2--3---2-/
A/--3----------3-----------/
E/-------------------------/ X4
"Goodbye, Blue Sky..."

e/-------------------------/
B/-------------------------/
G/-------------------------/
D/-----2--3--2-----2--3--2-/
A/--0-----------0----------/
E/-------------------------/ X4
"Goodbye"

e/-------------------------/
B/-------------------------/
G/-------------------------/
D/-----2--3--2-----2---3--2/
A/--3----------3-----------/
E/-------------------------/ X4
"Goodbye, Blue Sky..."

e/-------------------------/
B/-------------------------/
G/-------------------------/
D/-----2--3--2-----2--3--2-/
A/--0-----------0----------/
E/-------------------------/ X4
            
Hard to play? Try these video lessons and learn fast. | Correct




comments powered by Disqus
↑ Back to top | Tablatures and chords are parodies/interpretations of the original songs. You may use it for private study, scholarship, research or language learning purposes only