>
 >
Temper Rare Demo

Temper Rare Demo Guitar Tabs

System Of A Down - Temper Rare Demo chords, tabs, tablatures, lyrics

Guitar lessons | Add/correct | Request | Top 50 tabs Artists:  A B C D E F G H I J K L M N O P Q R S T U V W X Y Z 0-9

Temper Rare Demo Guitar Tabs – System Of A Down

CD, Sheet music, Poster

Do you like Temper Rare Demo? Share with your friends now
Tabs
YES!! THe better version and easier to play version for the rare demo song off systems tape. IT's called Temper!!!!! This is the most correct tab on the whole web.
 Its really good and should be on System of a Downs next album.

/= to slide up
\= to slide down


introduction
D----------------------------------------------------------------
A----------------------------------------------------------------
F------------------7-5-7-5-------5-5-7-57-108-12-10-1415-14-15-14-7-7-8\5/8-7 
C-8-8-7-5-5-7-7-----------8-8------------------------------------
G----------------------------------------------------------------
C----------------------------------------------------------------

D----------------------------------------------------------------
A----------------------------------------------------------------
F----------8--7-------------------------------------------------
C-------10---7--------play the whole thing 8 times---------------
G----------------------------------------------------------------
C----------------------------------------------------------------

Chorus

D----------------------------------------------------------------
A----------------------------------------------------------------
F----------------------------------------------------------------
C-0---1----3----5----3----1--------------------------------------------
G-0---1----3----5----3----1---------about 6 times----------------------
C-0---1----3----5----3----1--------------------------------------------




Verse
D----------------------------------------------------------------
A----------------------------------------------------------------
F----------------------------------------------------------------
C----------------------------------------------------------------
G----------------------------------------------------------------
C---0---5---0---5--3--1--1--3------------you figure out how many times they play it 
Chorus

D----------------------------------------------------------------
A----------------------------------------------------------------
F----------------------------------------------------------------
C-0---1----3----5----3----1--------------------------------------------
G-0---1----3----5----3----1---------about 6 times-----------------------------------
C-0---1----3----5----3----1--------------------------------------------

guitar solo

D----------------------------------------------------------------
A----------------------------------------------------------------
F----------------------------------------------------------------
C-------8-8-10-1210-810-87-8-7-5-5-7-88-9/11-7-12-13-15-13-12-10-^12-8-10-12-10-8-10-
G----------------------------------------------------------------
C----------------------------------------------------------------

D----------------------------------------------------------------
A----------------------------------------------------------------
F----------------------------------------------------------------
C---16--16-16--16--16--16-16--16--16--16---16---16-16--16---19------------------
G---17--16-17--16--17--16-17--16--16--17---17-------17--16--------------
C----------------------------------------------------------------



D----------------------------------------------------------------
A----------------------------------------------------------------
F---------10-11-10-11-10-11--------------------------------------------------
C--11-12----------------------    repeat about 6 times------------------------------------
G----------------------------- -----------------------------------
C----------------------------------------------------------------

Then the song is over. I tabbed this. Matter of fact, Im good. Everythings taken RULES!!!!!!! Go me Go me!!
"A friend with weed is a friend indeed" - Shawn lu





Comments


Popular System Of A Down tabs & chords
B Y O B Bass Tabs
Atwa Drum Tabs
Atwa 6 Tabs
Atwa 8 Tabs
Chop Suey Live Tabs
Innervision 3 Tabs
Know 2 Tabs
Marmelade Tabs
Needles 3 Tabs
Question 2 Tabs


Song lyrics



↑ Back to top | Tablatures and chords are parodies/interpretations of the original songs. You may use it for private study, scholarship, research or language learning purposes only
© 2014 AZChords.com Contact us | Privacy policy | DMCA | Add/correct tabs | Request tabs | Top 50 tabs