» » »

System Of A Down, Suite Pee Tabs (ver.1)

Artists:  A B C D E F G H I J K L M N O P Q R S T U V W X Y Z # 

Suite Pee Tabs (ver.1)

System Of A Down Tabs
 Rating:
4/5 (4 votes)
Suite Pee lessons Tabs too difficult? Try these video lessons and learn fast
                Tuning: C G C F A D

Distortion on the whole song.

Intro: Harmonics
D|----------------------------------------------|
A|----------------------------------------------|
F|--5*-5*-5*-4*-3.1*2.6*1.9*0*-0*-1.9*2.6*4*-5*-|
C|----------------------------------------------|
G|----------------------------------------------|
C|----------------------------------------------|

D|----------------------------------------------|
A|----------------------------------------------|
F|----------------------------------------------|
C|--5*-5*-5*-4*-3.1*2.3*1.9*0*-0*-1.9*3.1*4*-5*-|
G|----------------------------------------------|
C|----------------------------------------------|

D|----------------------------------------------|
A|----------------------------------------------|
F|----------------------------------------------|
C|----------------------------------------------|
G|--5*-5*-4*-4*-3.1*2.6*1.9*0*-1.9*2.6*4*-5*-5*-|
C|----------------------------------------------|

D|----------------------------------------------|
A|----------------------------------------------|
F|----------------------------------------------|
C|-5*-5*-4*-3.1*2.6*1.9*0*-0*-1.9*3.1*4*-5*-5*--|  
G|----------------------------------------------|  
C|----------------------------------------------|

Chorus:
D|-----------------|-----------------|
A|-----------------|-----------------|
F|-----------------|-----------------|
C|--0-0-0-0-1-0-1--|--0-0-0-0-1-0-3--|  
G|--0-0-0-0-1-0-1--|--0-0-0-0-1-0-3--|  
C|--0-0-0-0-1-0-1--|--0-0-0-0-1-0-3--|

Verse:
D|-------------------------------------10^-|
A|-----------------------------------------|
F|-7-7--7-7-8-7-8----7--7--7-7-7--8---7----|
C|-0---------------------------------------|
G|-----------------------------------------|
C|-----------------------------------------|

Interlude:                                          
D|-------------------------------------------------------------------|
A|-------------------------------------------------------------------|
F|-------------------------------------------------------------------|
C|-0-1-0--0-5-4~----0-1-0--0-5-4~----0-1-0--0-5-4~---0-1-0--0-5-4----|
G|-0-1-0--0-5-4~----0-1-0--0-5-4~----0-1-0--0-5-4~---0-1-0--0-5-4----|
C|-0-1-0--0-5-4~----0-1-0--0-5-4~----0-1-0--0-5-4~---0-1-0--0-5-4----|
pm                                                          ......

D|---------------------------------------------------------------------------|
A|---------------------------------------------------------------------------|
F|---------------------------------------------------------------------------|
C|-0-1--0-0-5--4----0-1--0-0-5--4----0-1--0-0-5--4----0-1--0--0-5--4---5--4^~|
G|-0-1--0-0-5--4----0-1--0-0-5--4----0-1--0-0-5--4----0-1--0--0-5--4---------|
C|-0-1--0-0-5--4----0-1--0-0-5--4----0-1--0-0-5--4----0-1--0--0-5--4---------|
pm..................................................................
    
D|------------------------------------------------------------------------|
A|------------------------------------------------------------------------|
F|------------------------------------------------------------------------|
C|-0-1--0-0-5-4------0-1--0-0-5---4---0-1--0-0-5---4---0-1--0-0-5---4-----|
G|-0-1--0-0-5-4------0-1--0-0-5---4---0-1--0-0-5---4---0-1--0-0-5---4-----|
C|-0-1--0-0-5-4^-----0-1--0-0-5---4---0-1--0-0-5---4---0-1--0-0-5---4-----|

D|--------------------------------|--------------------------------|
A|--------------------------------|--------------------------------|
F|----------------------------7-7-|7-8-7--7--12--11------11^(11)~--|
C|--0-1-0--0--5--4------------x-x-|x-x-x--x---x---x-------x--------|
G|--0-1-0--0--5--4------12\---5-5-|5-6-5--5--10---9-------9--------|
C|--0-1-0--0--5--4------12\-------|--------------------------------|
                            
(ph) = pinch harmonic           
D|--------------------------|---------------------------|----------------------|
A|----------------------(ph)|-----------------------(ph)|----------------------|
F|-7-8-7--7--12--11------11~|-7-8-7----7--12--11-----11~|-7-8-7--7--12--11-----|
C|-x-x-x--x---x---x---------|-x-x-x----x---x---x--------|-x-x-x--x---x---x-----|
G|-5-6-5--5--10---9---------|-5-6-5----5--10---9--------|-5-6-5--5--10---9-----|
C|--------------------------|---------------------------|----------------------|

Outro:
D|----------------------10-10-|-------------------10-10-|
A|----------------------------|--------------------x--x-|
F|----7--7--7--7--8--7--------|--7--7--7--7--8--7--7--7-|
C|----------------------------|-------------------------|
G|----------------------------|-------------------------|
C|----------------------------|-------------------------|
            
Submit corrections

comments powered by Disqus
↑ Back to top | System Of A Down Tabs for Suite Pee. Lyrics for acoustic guitar and electric guitar. Tablatures and chords are parodies/interpretations of the original songs. You may use it for private study, scholarship, research or language learning purposes only