>
 >
Soil 2

Soil 2 Guitar Tabs

System Of A Down - Soil 2 chords, tabs, tablatures, lyrics

Guitar lessons | Add/correct | Request | Top 50 tabs Artists:  A B C D E F G H I J K L M N O P Q R S T U V W X Y Z 0-9

Soil 2 Guitar Tabs – System Of A Down

CD, Sheet music, Poster

Do you like Soil 2? Share with your friends now
Bass TabsChordsDrum TabsTabsTabs v2Tabs v3Tabs v4
Soil
Drop D down 1 step


I'm about 95% sure on this one. I downloaded a vid of them playing it.


Intro (this chord over and over)
|------|
|------|
|--10--|
|--10--|
|--8---|
|------|

Chorus
|------------------------|
|------------------------|
|------------------------|
|------------------------|
|-3-1-0-0--3-1-0-0--0-0--|
|-3-1-0-0--3-1-0-0--0-0--|

Verse
p.m...........................................................
|-------------------------------------------------------------|
|-------------------------------------------------------------|
|-------------------------------------------------------------|
|-------------------------------------------------------------|
|-3-1-0-3-1-0--3-1-0-3-1-0-0--3-1-0-3-1-0--3-1-0-3-1-0-0--0-0-|
|-3-1-0-3-1-0--3-1-0-3-1-0-0--3-1-0-3-1-0--3-1-0-3-1-0-0--0-0-|

Post Verse
p.m..
|----------------|
|----------------|
|----------------|
|------5/7-7-7-7-|
|------3/5-5-5-5-|
|-0-0------------|

Post 1st Chorus          //
|----------------------------|
|------------------------13--|
|-------8----11----10----13--|
|--0----6----9-----8-----13--|
|--0------0----0-----0-------|
|--0------0----0-----0-------|

Breakdown
p.m.......................................... 2x
|----------------------------------------------|
|----------------------------------------------|
|----------------------------------------------|
|--0-0--------0-0--------0-0--------0--0--0--0-|
|--0-0--------0-0--------0-0--------0--0--0--0-|
|--0-0--------0-0--------0-0--------0--0--0--0-|

Pre-Solo                     4x        
|------10----------10---10---|-10-10-10-10-10-10-10-10-10-10-10-|
|----------------------------|----------------------------------|
|--7-7---7-7-7-7-7----7----7-|----------------------------------|
|----------------------------|----------------------------------|
|----------------------------|----------------------------------|
|----------------------------|----------------------------------|

Solo
|-10----10-12-13--12-13-15------10-12-13-------|
|-10-----------------------10br----------10br~-|
|-10-------------------------------------------|
|----------------------------------------------|
|----------------------------------------------|
|----------------------------------------------|
                                                            2x
|-----------------------------------------------------------|
|-----------------------------------------------------------|
|-----------------------------------------------------------|
|-X-----3------3------3------3------3------3------3------3--|
|-X-3h5--5-3h5--5-3h5--5-3h5--5-3h5--5-3h5--5-3h5--5-3h5--5~|
|-----------------------------------------------------------|

|--------------------------------------------------------------|
|--------------------------------------------------------------|
|-X-------10---------10---------10---------10-12b-10-12b-10~~--|
|-X-10h12---12-10h12---12-10h12---12-10h12---------------------|
|--------------------------------------------------------------|
|--------------------------------------------------------------|
                                                                   hold bend....
|-------------------------------------------------------------------15b-(15)-(15)-\-|
|-10-10-10-10-10-10-10-10-10-10-10-10------10-12b-12-10-13b-13b-13b-----------------|
|-10-10-10-10-10-10-10-10-10-10-10-10-10h12-----------------------------------------|
|-----------------------------------------------------------------------------------|
|-----------------------------------------------------------------------------------|
|-----------------------------------------------------------------------------------|

Post Solo
|--------------------------------------------|
|--------------------------------------------|
|--------------------------------------------|
|-10\11-11-11-11\10-10-10-10\7-7-7-7\6-6-6-6/|
|--9\10-10-10-10\9--9--9---9\6-6-6-6\5-5-5-5/|
|--------------------------------------------|

|--------------------------------------------|
|--------------------------------------------|
|--------------------------------------------|
|7-7-7-7/10-10-10-10/11-11-11-11\10-10-10-10-|
|6-6-6-6/9--9--9---9/10-10-10-10\9--9--9--9--|
|--------------------------------------------|

|-------------------------------------------------------------------------------|
|-------------------------------------------------------------------------------|
|-------------------------------------------------------------------------------|
|-/11-11-11-11/14-14-14-14\13-13-13-13\11-11-11-11\10-10-10-10\7-7-7-7\6-6-6-6--|
|-/10-10-10-10/13-13-13-13\12-12-12-12\10-10-10-10\9--9--9---9\6-6-6-6\5-5-5-5--|
|-------------------------------------------------------------------------------|
  
trem. pick..........................................................................
|-2h3p2-------2h3p2h3-/6-5-3-2-----14h15-p14---------14h15-14-15-18-17-15-14-------|
|-------4-3-4------------------4-3-----------16-15-16------------------------16-15-|
|----------------------------------------------------------------------------------|
|----------------------------------------------------------------------------------|
|----------------------------------------------------------------------------------|
|----------------------------------------------------------------------------------|

Outro
|-------------------------------------------------------------|
|-------------------------------------------------------------|
|-------------------------------------------------------------|
|-3-1-0-3-1-0--3-1-0-3-1-0-0--3-1-0-3-1-0--3-1-0-3-1-0-0--0-0-|
|-3-1-0-3-1-0--3-1-0-3-1-0-0--3-1-0-3-1-0--3-1-0-3-1-0-0--0-0-|
|-3-1-0-3-1-0--3-1-0-3-1-0-0--3-1-0-3-1-0--3-1-0-3-1-0-0--0-0-|





Comments


Popular System Of A Down tabs & chords
Bounce 5 Bass Tabs
Bubbles 3 Bass Tabs
Roulette Bass Tabs
The Metro 2 Bass Tabs
Atwa Correct Intro Tabs
Johnny Tabs
Know 3 Tabs
Pictures 2 Tabs
Question 1 Tabs
Sugar Intro Tabs


Song lyrics



↑ Back to top | Tablatures and chords are parodies/interpretations of the original songs. You may use it for private study, scholarship, research or language learning purposes only
© 2014 AZChords.com Contact us | Privacy policy | DMCA | Add/correct tabs | Request tabs | Top 50 tabs