» » »

Ego Brain Tabs (ver.3)

Artists:  A B C D E F G H I J K L M N O P Q R S T U V W X Y Z # 

Ego Brain Tabs (ver.3)

System Of A Down
Rating:
0/5 (0 votes)

Hard to play? Try these video lessons and learn fast.
                system of a down - ego brain
tuning: cgcfad

1:-----0-3-0-0-0-------------|-----0-3-0-0-0------------------3-----3-------------|
2:---------------------------|-------------------3-----3----3-----3---------------|
3:---4---------------4-----4-|---4-------------2-----2----0-----0---------------2-|
4:-2---------------2-----2---|-2-------------0-----0----------------------5---2---|
5:---------------0-----0-----|------------------------------------------5---0-----|
6:---------------------------|----------------------------------------5-----------|

1:--------|----------------------------|
2:--------|----------------------------|
3:--------|----------------------------|
4:5--7--9-|-3---3---3---3---2---2---2--|
5:5--7--9-|-3---3---3---3---2---2---2--|
6:5--7--9-|-3---3---3---3---2---2---2--|

1:--------------------------------|
2:--------------------------------|
3:--------------------------------|
4:-3---3---5--7--9--2---2---2---2-|
5:-3---3---5--7--9--2---2---2---2-|
6:-3---3---5--7--9--2---2---2---2-|



1:-------------------|-------------------|----------------------------|------------|
2:-------------------|-------------------|----------------------------|------------|
3:-------------------|-------------------|----------------------------|------------|
4:-2--2b3r2----------|-2--2b3r2----------|-3--3-5-3-5/7-5-3-5-3-5-3/2-|-2--2b3r2---|
5:-2--------3--2b3r2-|-2--------3--2b3r2-|-3--------------------------|-2--------3-|
6:-2-----------------|-2-----------------|-3--------------------------|-2----------|


1:-3~-|
2:-5~-|
3:-4~-|
4:-2~-|
5:----|
6:----|
            
Hard to play? Try these video lessons and learn fast. | Correct




comments powered by Disqus
↑ Back to top | Tablatures and chords are parodies/interpretations of the original songs. You may use it for private study, scholarship, research or language learning purposes only