» » »

D Devil Bass tabs (ver.2)

Artists:  A B C D E F G H I J K L M N O P Q R S T U V W X Y Z # 

D Devil Bass tabs (ver.2)

System Of A Down
Rating:
0/5 (0 votes)
Tabs too difficult? Try these video lessons and learn fast.
                Drop C Tuning, Awesome song! what else is there to say.


Intro#1
F----------------------
C--3-5-3-4-3-555-4----
G---------------------
C---------------------

Intro#2
F-----------------------
C----------------------- 
G-----------------------     
C---3-5-3-4-3-555-4-----

 Verse
G-------
C-------
F-------
C--7-6--

 Chorus
F-----------------------------------------------------------------------
C-----------------------------------------------------------------------
G-----------------------------------------------------------------------
C-4--3--5--4---555-4-555-4--5--4--555--4--555--4--5--3--555-4-555-4--5-4
Verse 
Chorus
Bridge      
F-----------x4 listen for timing
C-----------
G-----------
C--3-555-4-- 
Verse
Chorus
Intro Part#2 x8
            
Tabs too difficult? Try these video lessons and learn fast.


comments powered by Disqus
↑ Back to top | Tablatures and chords are parodies/interpretations of the original songs. You may use it for private study, scholarship, research or language learning purposes only