» » »

System Of A Down, Chop Suey Standard Tuning Tabs (ver.1)

Artists:  A B C D E F G H I J K L M N O P Q R S T U V W X Y Z # 

Chop Suey Standard Tuning Tabs (ver.1)

System Of A Down Tabs
Rating:
0/5 (0 votes)
Chop Suey Standard Tuning lessons Tabs too difficult? Try these video lessons and learn fast
                Here's how to play it without retuning your guitar.

ss=slide then strum

guitar 1 (play twice)
e|----------------------------------------------------|
B|----------------------------------------------------|
G|-2-2-2-2-2-2ss4-4-4-4-4-4ss2-2-2-2-2-2ss1-1-1-1-1-1-|
D|-4-4-4-4-4-4ss6-6-6-6-6-6ss4-4-4-4-4-4ss3-3-3-3-3-3-|
A|-4-4-4-4-4-4ss6-6-6-6-6-6ss4-4-4-4-4-4ss3-3-3-3-3-3-|
E|----------------------------------------------------|


guitar 2 riff  (play alone once, then with guitar one on top of it
twice)

G|-10-7-10-7-10-7-12-9-12-9-12-9-10-7-10-7-10-7-8-5-8-5-8-5|

after all that play this

e|--------------|
B|--------------|
G|-11-11-11-11--|
D|-11-11-11-11--|
A|-11-11-11-11--|
E|-11-11-11-11--|

A|-0-4-0-4-0-3-0-3-0-6-0-6-0-8-0-8-|
E|-3-3-3-3-2-2-2-2-5-5-5-5-7-7-7-7-| play twice then go into this

D|-3-3-3-3-2-2-2-2-5-5-5-5-7-7-7-7-|
A|-3-3-3-3-2-2-2-2-5-5-5-5-7-7-7-7-|
E|-3-3-3-3-2-2-2-2-5-5-5-5-7-7-7-7-| play this twice

I'm not sure about the suff during the lyrics but this is a good way
to play the intro.
            

comments powered by Disqus
↑ Back to top | System Of A Down Tabs for Chop Suey Standard Tuning. Lyrics for acoustic guitar and electric guitar. Tablatures and chords are parodies/interpretations of the original songs. You may use it for private study, scholarship, research or language learning purposes only