» » »

System Of A Down, Bubbles Tabs (ver.2)

Artists:  A B C D E F G H I J K L M N O P Q R S T U V W X Y Z # 

Bubbles Tabs (ver.2)

System Of A Down Tabs
 Rating:
4/5 (4 votes)
Bubbles lessons Tabs too difficult? Try these video lessons and learn fast
                Any mistakes, email or IM me. ;->

* = Palm Mute

Chorus
|---------------------------------------------------------------------------------------------------
|---------------------------------------------------------------------------------------------------
|---------------------------------------------------------------------------------------------------
|-5*-5*-5*-5*--3-4-5—3-4-5—3-4-5--3-4-5—3-4-5—3-4-5--3-4-5—3-4-5—6-6-6
|-5*-5*-5*-5*--3-4-5—3-4-5—3-4-5--3-4-5—3-4-5—3-4-5--3-4-5—3-4-5—6-6-6
|-5*-5*-5*-5*--3-4-5—3-4-5—3-4-5--3-4-5—3-4-5—3-4-5--3-4-5—3-4-5—6-6-6

|--------------------------------------------------------------------------------------------------
|--------------------------------------------------------------------------------------------------
|--------------------------------------------------------------------------------------------------
|-3-5-5-3-5-3-5-5-6-6-6-----------------------------------------------------------------------
|-3-5-5-3-5-3-5-5-6-6-6-----------------------------------------------------------------------
|-3-5-5-3-5-3-5-5-6-6-6-----------------------------------------------------------------------

Verse
|-----------------------------------------------------------------------
|-----------------------------------------------------------------------
|-7----8----7---4----7---8----10---8---7----8----------------------
|------------------------------------------------------------------------
|------------------------------------------------------------------------
|------------------------------------------------------------------------

Part where Serj says “May I remind you…”
|----------------|
|----------------|
|----------------|
|-0*-6*-5*-6*-5*-|
|-0*-6*-5*-6*-5*-|
|-0*-6*-5*-6*-5*-|
            
Submit corrections

comments powered by Disqus
↑ Back to top | System Of A Down Tabs for Bubbles. Lyrics for acoustic guitar and electric guitar. Tablatures and chords are parodies/interpretations of the original songs. You may use it for private study, scholarship, research or language learning purposes only