» » »

Arto Bass tabs (ver.1)

Artists:  A B C D E F G H I J K L M N O P Q R S T U V W X Y Z # 

Arto Bass tabs (ver.1)

System Of A Down
Rating:
0/5 (0 votes)
Tabs too difficult? Try these video lessons and learn fast.
                System Of A Down

flute at begining

F|--/14~--12-12h14-12--10-10h12-/14~~--|--/15--14-12-10---9-10-12--|
C|-------------------------------------|---------------------------|
G|-------------------------------------|---------------------------|
C|-------------------------------------|---------------------------|

F|--9-10--9h10p9-9--10~--|--/14~--12-14-15-/17\-15-14-12--|
C|-----------------------|--------------------------------|
G|-----------------------|--------------------------------|
C|-----------------------|--------------------------------|

F|--10--10/(14)\(12)-12-12/(14)\(10)--9--7--|
C|------------------------------------------|
G|------------------------------------------|
C|------------------------------------------|

F|--7-7-9-10--10/12\(9)--9--9h10\--7~--|
C|---------------------------------0~--|
G|-------------------------------------|
C|-------------------------------------|

vocals type of thing (the arrrrr bit)
F|-----------------------------|------------------------------------|
C|--/7~--5-5h7-5(\)--3-5-5/7~--|-/8~-7-5-3-2-3-5--3-5-3h5p3-2--2h3~-|
G|-------------------------0~--|------------------------------------|
C|-----------------------------|------------------------------------|

F|--//14\\---------------------------------------------------|
C|---------5-7-8--8h10p8-8--7-5-3--3/7-5--5/(7)\(3)--2--0----|
G|-----------------------------------------------------------|
C|-----------------------------------------------------------|

F|--------------------------------------|
C|--0-0-2-3--3/5~-(\)--2-2h3~-(\)--0~~--|
G|--------------------------------------|
C|---------------------------------0~~--|
            
Tabs too difficult? Try these video lessons and learn fast.


comments powered by Disqus
↑ Back to top | Tablatures and chords are parodies/interpretations of the original songs. You may use it for private study, scholarship, research or language learning purposes only