>
 >
Lady Of The Snow

Lady Of The Snow Guitar Tabs

Symphony X - Lady Of The Snow chords, tabs, tablatures, lyrics

Guitar lessons | Add/correct | Request | Top 50 tabs Artists:  A B C D E F G H I J K L M N O P Q R S T U V W X Y Z 0-9

Lady Of The Snow Guitar Tabs – Symphony X

CD, Sheet music, Poster

Do you like Lady Of The Snow? Share with your friends now
Bass TabsTabs
Lady of The Snow




 
 Downtuned a whole step.
 
E-------------2-------------------2-----------------|
B-----------5-------------------5---5---------------|
G-------4-5-----------------4-5-------5-4-----------|
D---4-5-----------------4-5---------------5-4-------|
A-2-------------------2-----------------------2-----|
E---------------------------------------------------|

Verse 1 : ( x 5 ) Use a capo on the second fret
E-------------2-----------------------2------------|
B-----------5---5-------------------5---5----------|
G-------4-5-------5-4-----------4-5-------5-4------|
D---4-5---------------5-4---4-5---------------5-4--|
A-2-----------------------2------------------------|
E--------------------------------------------------|

End like this :
E----2----|
B----5----|
G----4----|
D----5----|
A-2--2----|
E---------|

Distorsion guitar (x4)
E------------------------------------|
B------------------------------------|
G------------------------------------|
D-4-4-4-4-4-4-4-4-4-4-4-4-4-4-4-4----|
A-2-2-2-2-2-2-2-2-2-2-2-2-2-2-2-2----|
E------------------------------------|

E-------------------------------|
B-------------------------------|
G-------------------------------|
D-------------------------------|
A-3--2-0----6-6-6-6--(sim)------|
E---------3-4-4-4-4-------------|

Riff over solo
E------------------------------------------|
B------------------------------------------|
G------------------------------------------|
D-5-------5-----------8-------8----7-------|
A-3---6---3---6---5---6---5---6----5-------|
E-----4-------4---3-------3----------------|

Solo :
E--------------------------------------------------------------------------|
B-11b(13)----11b(12)--11-12p11p9----/8b(9)p6h8--6--------------------------|
G--------------------------------------------------8--8-7-5----------------|
D-----------------------------------------------------------6-5-4-3--------|
A-------------------------------------------------------------------6-5-3--|
E--------------------------------------------------------------------------|

E---------------------20b(22)--20b(22)--20b(22)ah--24b(27)-24b(26)----|
B---------------------------------------------------------------------|
G-/13--16-15-12-13----------------------------------------------------|
D---------------------------------------------------------------------|
A-/11--14-13-10-11----------------------------------------------------|
E---------------------------------------------------------------------|
 
E-24b(26)-r-23--/18--22----------------------15----------------------------|
B------------------------23p20----20---------------------------------------|
G------------------------------22----22b~-------18-17-15-------------8-10--|
D----------------------------------------------------------------8-9-------|
A---------------------------------------------------------6--8-9-----------|
E--------------------------------------------------------------------------|

E---------------------------19-18--24b(25)-23-24b(26)---23h24p23-22~-----|
B-------12-11-18-16--19-18-----------------------------------------------|
G-11-10------------------------------------------------------------------|
D------------------------------------------------------------------------|
A------------------------------------------------------------------------|
E------------------------------------------------------------------------|

Verse :
E---------0---------------0---------------0---------------0--------|
B-------3---3-----------3---3-----------3---3-----------3---3------|
G---2-3-------3-2---2-3-------3-2---2-3-------3-2---2-3-------3-2--|
D-0---------------0---------------0---------------0----------------|
A------------------------------------------------------------------|
E------------------------------------------------------------------|

E---------1---------------0---------------0---------5-3------------|
B-------1---1-----------1---1-----------3---3-----------3-6-6-5-6--|
G-----3-------3-------4-------4-----2-3-------3-2------------------|
D---3-----------3---2-----------2-0---------------0----------------|
A-1---------------0------------------------------------------------|
E------------------------------------------------------------------|

repeat above once
CHORUS
E-------------------------------------------------------|
B-------------------------------------------------------|
G-------------------------------------------------------|
D---7-6-4-----------------------------------6-----------|
A----------7--6--4-6-7--6--4--2-4-5--4--3---4--4-4-4----|
E-------------------------------------------------------|

E-----------------------------------------------|
B-----------------------------------------------|
G-----------------------------------------------|
D---7-6-4-----------------------------------6---|
A----------7--6--4-6-7--6--4--2-4-5--4--3---4---|
E-----------------------------------------------|

 
E----------------------------------------------------------------------------|
B----------------------------------------------------------------------------|
G----------------------3-----------3-----------3-----------3-----------------|
D-2-2---2-2------------1-----1-3-4---4-3-1-----1-----1-3-4---4-3-1-----------|
A-0-0---0-0---4---4------1-2---------------2-1---1-2---------------2-1-4---4-|
E-------------2---2----------------------------------------------------2---2-|

Riff over solo
E--------------------------------|
B--------------------------------|
G--------------------------------| x 2
D-----------------6-------6------|
A-3-------3-------4---4-4-4------|
E-1---1-1-1---1-1----------------|

E--------------------------------|
B--------------------------------|
G--------------------------------| x 2
D-----------------8-------8------|
A-5-------5-------6---6-6-6------|
E-3---3-3-3---3-3----------------|

Solo :
E-------------------------------------------------------------------|
B-------------------------------------------------------------------|
G----------------------------------10-12-12b(13)--10h12p10----10-9--|
D----------------10-11-10~---10h11-------------------------11-------|
A-/8----10-10-11----------------------------------------------------|
E-------------------------------------------------------------------|

E-17b(19)------------------------------/12-11--------16--------18-----|
B---------------------------------------------12-/14----14-/16----16--|
G---------------------------------------------------------------------|
D----------13--11h13p11-----11--13------------------------------------|
A-----------------------14---------11---------------------------------|
E---------------------------------------------------------------------|

E----20------------18-----------------13----16----13h16p13----------|
B-18----18--21--16----16-18---16b(18)----16----16----------16-15-13-|
G-------------------------------------------------------------------|
D-------------------------------------------------------------------|
A-------------------------------------------------------------------|
E-------------------------------------------------------------------|

E---------------------------------------------------13h16p13----16-21-22~---|
B-12-15p13p12---------------------------------13-16----------18-------------|
G-------------15p14p13----15----13------13-15-------------------------------|
D----------------------15----15------15-------------------------------------|
A---------------------------------------------------------------------------|
E---------------------------------------------------------------------------|

E-23b(24)--23br-19h23p21---18h21p18-----24b(28)------------------------------|
B----------------------------------vib---------------------------------------|
G---------------------------------------------------------------12--11-13-12-|
D-----------------------------------------------10--10/12/12/13--------------|
A----------------------------------------------------------------------------|
E----------------------------------------------------------------------------|

E------------------------------------14-----------------19b(21)--19b(21)ah---|
B--------------------15--14b(16)r-11-------------16--------------------------|
G-------12-14-15--14----------------------15--15----14-----------------------|
D-12h13----------------------------------------------------------------------|
A----------------------------------------------------------------------------|
E----------------------------------------------------------------------------|

E-14h17p14----14----11----8---5---2------------------------------------|
B----------16----13----10---7---4--------------------------------------|
G-----------------------------------3~------------------12--11-13-12---|
D---------------------------------------10--10/12/12/13----------------|
A----------------------------------------------------------------------|
E----------------------------------------------------------------------|

E-------------------------------11----13----14-13b(14)--11h13p11-10-13-11--|
B--------------------15------11----11----11--------------------------------|
G-------12-14-15--14----15-------------------------------------------------|
D-12h13--------------------------------------------------------------------|
A--------------------------------------------------------------------------|
E--------------------------------------------------------------------------|

E-------------18---14h17h18-17p14h23--18p17p14h18h23--18p17p14-------------------|
B-------16h18--------------------------------------------------------------------|
G-15h16-----------------------------------------------------------20p18p15h18h20-|
D--------------------------------------------------------------------------------|
A--------------------------------------------------------------------------------|
E--------------------------------------------------------------------------------|

E-14h17h18h23p18p17p14h23p18p17p14----------------14h18h23p18p14----20b(22)----|
B----------------------------------------------------------------16------------|
G----------------------------------20p18p15h18h20------------------------------|
D------------------------------------------------------------------------------|
A------------------------------------------------------------------------------|
E------------------------------------------------------------------------------|

Verse : ( x 2 )
E---------0---------------0---------------0---------------0--------|
B-------3---3-----------3---3-----------3---3-----------3---3------|
G---2-3-------3-2---2-3-------3-2---2-3-------3-2---2-3-------3-2--|
D-0---------------0---------------0---------------0----------------|
A------------------------------------------------------------------|
E------------------------------------------------------------------|

E---------1---------------0---------------0---------5-3------------|
B-------1---1-----------1---1-----------3---3-----------3-6-6-5-6--|
G-----3-------3-------4-------4-----2-3-------3-2------------------|
D---3-----------3---2-----------2-0---------------0----------------|
A-1---------------0------------------------------------------------|
E------------------------------------------------------------------|

With distorsion :
E-----------------------------------|
B-----------------------------------|
G-----------------------------------|
D-7----3---2---7---7----3---2-------|
A-5----1---0---5---5----1---0-------|
E-----------------------------------|

CHORUS
 
E----------------------------------------------------|
B----------------------------------------------------|
G----------------------------------------------------|
D---------------------------------------------10-----|
A-----------------------------6-8-9---8---7---8------|
E-6---4---3---1-3-4---3---1--------------------------|





Comments


Popular Symphony X tabs & chords
Communion And The Oracle 1 Bass Tabs
Sea Of Lies 2 Bass Tabs
Smoke & Mirrors Bass Tabs
The Odyssey Bass Tabs
The Relic Bass Tabs
The Turning Bass Tabs
A Winter's Dream - Prelude (Part I) Tabs
Incantations Of The Apprentice Tabs
Inferno Intro Tabs
The Damnation Game Tabs


Song lyrics



↑ Back to top | Tablatures and chords are parodies/interpretations of the original songs. You may use it for private study, scholarship, research or language learning purposes only
© 2014 AZChords.com Contact us | Privacy policy | DMCA | Add/correct tabs | Request tabs | Top 50 tabs