» » »

Symphony X, A Winters Dream Part I Bass tabs (ver.1)

Artists:  A B C D E F G H I J K L M N O P Q R S T U V W X Y Z # 

A Winters Dream Part I Bass tabs (ver.1)

Symphony X Tabs
 Rating:
4/5 (4 votes)
A Winters Dream Part I lessons Tabs too difficult? Try these video lessons and learn fast
1
                standard 4 string tuning

E||-------------------|-------------------|-------------------|
B||-------------------|-------------------|-------------------|
G||-------------------|-------------------|-------------------|
D||-------------------|-------------------|-------------------|
A||--4----------------|--0----------------|-------------------|
E||-------------------|-------------------|--1----------------|


                                                             
--------------------|-------------------|-------------------|
--------------------|-------------------|-------------------|
--------------------|-------------------|-------------------|
--------------------|-------------------|-------------------|
--------------------|--4----------------|--0----------------|
--0----------2------|-------------------|-------------------|


                                                             
-------------------|--------------------|-------------------|
-------------------|--------------------|-------------------|
-------------------|--------------------|-------------------|
-------------------|--------------------|-------------------|
-------------------|--------------------|--4----------------|
--1----------------|--0----------2------|-------------------|


                                                            
-------------------|-------------------|-------------------|
-------------------|-------------------|-------------------|
-------------------|-------------------|-------------------|
-------------------|-------------------|-------------------|
--4----------------|--0----------------|-------------------|
-------------------|-------------------|--1----------------|


                                                             
--------------------|-------------------|-------------------|
--------------------|-------------------|-------------------|
--------------------|-------------------|-------------------|
--------------------|-------------------|-------------------|
--------------------|--4----------------|--0----------------|
--0----------2------|-------------------|-------------------|


                                                              
-------------------|--------------------|--------------------|
-------------------|--------------------|--------------------|
-------------------|--------------------|--------------------|
-------------------|--------------------|--------------------|
-------------------|--------------------|--0--------2--------|
--1----------------|--0----------2------|--------------------|


                                                                
--------------------|--------------------|---------------------|
--------------------|--------------------|---------------------|
--------------------|--------------------|---------------------|
--------------------|--------------------|---------------------|
--0--------2--------|--4------0----------|---------------------|
--------------------|--------------------|--1------0------2----|


                                                               
--------------------|---------------------|-------------------|
--------------------|---------------------|-------------------|
--------------------|---------------------|-------------------|
--------------------|---------------------|-------------------|
--4------0----------|---------------------|--4----------------|
--------------------|--1------0------2----|-------------------|


                                                             
-------------------|-------------------|--------------------|
-------------------|-------------------|--------------------|
-------------------|-------------------|--------------------|
-------------------|-------------------|--------------------|
--0----------------|-------------------|--------------------|
-------------------|--1----------------|--0----------2------|


                                                            
-------------------|-------------------|-------------------|
-------------------|-------------------|-------------------|
-------------------|-------------------|-------------------|
-------------------|-------------------|-------------------|
--4----------------|--0----------------|-------------------|
-------------------|-------------------|--1----------------|


                                                               
--------------------|--------------------|--------------------|
--------------------|--------------------|--------------------|
--------------------|--------------------|--------------------|
--------------------|--------------------|--------------------|
--------------------|--0--------2--------|--0--------2--------|
--0------2----------|--------------------|--------------------|


                                                                
--------------------|---------------------|--------------------|
--------------------|---------------------|--------------------|
--------------------|---------------------|--------------------|
--------------------|---------------------|--------------------|
--4------0----------|---------------------|--4------0----------|
--------------------|--1------0------2----|--------------------|


                                                              
---------------------|-------------------|-------------------|
---------------------|-------------------|-------------------|
---------------------|-------------------|-------------------|
---------------------|-------------------|-------------------|
---------------------|--4----------------|--0----------------|
--1------0------2----|-------------------|-------------------|


                                                                                
-------------------|-------------------|-------------------|-------------------|
-------------------|-------------------|-------------------|-------------------|
-------------------|-------------------|-------------------|-------------------|
-------------------|-------------------|-------------------|-------------------|
--4----------------|--0----------------|--4----------------|--0----------------|
-------------------|-------------------|-------------------|-------------------|


                                                                                
-------------------|-------------------|-------------------|-------------------|
-------------------|-------------------|-------------------|-------------------|
-------------------|-------------------|-------------------|-------------------|
-------------------|-------------------|-------------------|-------------------|
--4----------------|--0----------------|--4----------------|--0----------------|
-------------------|-------------------|-------------------|-------------------|


                                                                                
-------------------|-------------------|-------------------|------------------||
-------------------|-------------------|-------------------|------------------||
-------------------|-------------------|-------------------|------------------||
-------------------|-------------------|-------------------|------------------||
--4----------------|--0----------------|-------------------|------------------||
-------------------|-------------------|--4----------------|------------------||
            
Submit corrections

comments powered by Disqus
↑ Back to top | Symphony X Bass for A Winters Dream Part I. Lyrics for acoustic guitar and electric guitar. 1 Tablatures and chords are parodies/interpretations of the original songs. You may use it for private study, scholarship, research or language learning purposes only