» » »

Economy Of Mercy Tabs (ver.1)

Artists:  A B C D E F G H I J K L M N O P Q R S T U V W X Y Z # 

Economy Of Mercy Tabs (ver.1)

Switchfoot
Rating:
0/5 (0 votes)

Hard to play? Try these video lessons and learn fast.
                ----------------------------------------------------------------------------
                         The Economy Of Mercy- Switchfoot
----------------------------------------------------------------------------

Band: Switchfoot
Tuning: Standard (EADGBE)

This one of Switchfoot's mellow songs and it's one of my favorites
individual note picking and simple chords. Its a simple song and
here's how I play it. If you like it, go ahead and rate it!

INTRO: Basically, you just make a G chord and hit these individual 
notes. You play this 4x through and there is a little bit of 
variation sometimes with the individual notes but this is most of it.
At the end of the 2nd time you play the extra fill that goes
in between the two divisions of the intro. Then repeat this again.
e|---------|--------------------------------------------------|
B|---------|---3---3-------3-----3----------3-----3-----------|
G|---------|---0----0-------0-----0-0--------2-----0-0--------|
D|------0~-|---0---------0-----0---0------0-----0---0---------|
A|----2----|---2----------------------------------------------|
E|--3------|---3----------------------------------------------|
This is the fill that is played after the 1st time 
through (0:15) and then again just before the verse.
e|--------------|
B|-3p2-2---2-3--|
G|-------4------|
D|--------------|

VERSE 1:
   G    D     D  G             G    D     D  G
e|-3~---2-----2--3~------------3~---2-----2--3~--------|
B|-3~---3-----3--3~---3333~----3~---3-----3--3~--------|
G|-0~---2-----2--0~------------0~---2-----2--0~--------|
D|-0~---0-----0--0~------------0~---0-----0--0~--------|
A|-2~---0-----0--2~------------2~---0-----0--2~--------|
E|-3~---0-----0--3-------------3~---0-----0--3---------|

PRECHORUS: "Where will I find you?" For the 1st chord here, make 
sure you do an upstroke on the 1st chord or it will sound wrong! 
The rest of the chords can just be played with normal downstrokes.
e|---3~----2--3-----2--3-----2--3---------|
B|---3~----3--3-----3--3-----3--3---------|
G|---2~----2--0-----2--0-----2--0---------|
D|---0~----0--0-----0--0-----0--0---------|
A|---0~----0--2-----0--2-----0--2---------|
E|---------0--3-----0--3-----0--3---------|

CHORUS: This is played 2 times but there are some extra 
individual notes added in some places. These are the notes 
you use though and you can mess around with them if you want.
e|--5--5------5--5-5------5--7-5---5--5------5--5-5---5--5---5-4-5-7-545-|
B|---5---5-5---5--5-5------5--------5--5-5----5--5-----55-55-------------|
G|----4---4-----4-----------4--------4--4------4-------------------------|
D|-----------------------------------------------------------------------|
A|-----------------------------------------------------------------------|
E|-----------------------------------------------------------------------|
trasition to verse:
e|-0--0--0------|
B|-3--2--3------|
G|-2--2--2------|
D|-0--0--0------|
A|-0--0--0------|
E|-0--0--0------|

VERSE 2: Once again there is a lot of variation to the 
individualnotes but these are the notes you use.
e|-0------0--------0-------0---------2--3-2-00-----|
B|-3----3--3----3-3-3-----3---3-----3---3-3-33-----|
G|-2-----2--2----2---2---2---2-2---2---------------|
D|-0--0------0---------0----------0----------------|
A|-0-----------------------------------------------|
E|-------------------------------------------------|


BRIDGE: "Where was I when the world was made" 
e|---3~----2--3-----2--3--2~----3---3333--|
B|---3~----3--3-----3--3--3~----3---3333--|
G|---2~----2--0-----2--0--2~----2---2222--|
D|---0~----0--0-----0--0--0~----0---0000--|
A|---0~----0--2-----0--2--0~----0---0000--|
E|---------0--3-----0--3--0---------------|
"I'm lost without you here"
Use up and down strokes and play till Outro.
e|---33333----|
B|---33333----|
G|---00000----|
D|---00000----|
A|---22222----|
E|---33333----|


OUTRO: Same as Intro with variations in the individual notes.
e|--------------------------------------------------|
B|---3---3-------3-----3----------3-----3-----------|
G|---0----0-------0-----0-0--------2-----0-0--------|
D|---0---------0-----0---0------0-----0---0---------|
A|---2----------------------------------------------|
E|---3----------------------------------------------|
This is the fill that is in the place of the one used
for the Intro:
e|-2222-2p0-00--|
B|--------------|
G|--------------|
End with this:
e|-----------3~--|
B|-3p2-2---2-3~--|
G|-------4---0~--|
D|-----------0~--|
A|-----------2~--|
E|-----------3~--|



Rock On.
            
Hard to play? Try these video lessons and learn fast. | Correct




comments powered by Disqus
↑ Back to top | Tablatures and chords are parodies/interpretations of the original songs. You may use it for private study, scholarship, research or language learning purposes only