» » »

Switched, Inside Bass tabs (ver.1)

Artists:  A B C D E F G H I J K L M N O P Q R S T U V W X Y Z # 

Inside Bass tabs (ver.1)

Switched Tabs
 Rating:
4/5 (4 votes)
Inside lessons Tabs too difficult? Try these video lessons and learn fast
1
                I tabbed this song for a 4-string bass but the bassist for Switched plays a 5-string. The tab is chronological order with time for easy play. Enjoy!


No bass in guitar intro with sound effects

Intro (0:12) x3
G|--------------------------------------------------------------------------|
D|--------------------------------------------------------------------------|
A|--------------------------------------------------------------------------|
E|-5-5-5--5--5--5-5-5-5-5-3-------------------------------------------------|

Intro Fill (0:20) x1
G|--------------------------------------------------------------------------|
D|--------------------------------------------------------------------------|
A|--------------------------------------------------------------------------|
E|-5-5-5--5--5-5------------------------------------------------------------|

Riff 1 (0:23) x1
G|--------------------------------------------------------------------------|
D|--------------------------------------------------------------------------|
A|-3--0--3-0--3-3--5-5--3-3-------------------------------------------------|
E|---------------------------6--4-0-----------------------------------------|

Riff 2 (0:30) x2
G|--------------------------------------------------------------------------|
D|--------------------------------------------------------------------------|
A|-3-3--5-5--3-3--3-0-3-0--3-3--5-5--3-3------------------------------------|
E|----------------------------------------6--4-0----------------------------|

Chorus A (0:41) x1
G|--------------------------------------------------------------------------|
D|--------------------------------------------------------------------------|
A|-4--4--4-4-0---2--2--2-2--3-0-------------3-0-----------------------------|
E|--------------------------------5--5--5-5-------3--3--3-3-3---------------|

Chorus B (0:52) x1
G|--------------------------------------------------------------------------|
D|--------------------------------------------------------------------------|
A|-4--4--4-4-0---2--2--2-2--3-0-------3-0-3-0--3--3-0-----------------------|
E|-------------------------------5------------------------------------------|

Chorus Fill (1:01) x1
G|--------------------------------------------------------------------------|
D|--------------------------------------------------------------------------|
A|-3-3-0--3-3-0-------------------------------------------------------------|
E|--------------------------------------------------------------------------|

Intro (1:04) x1

Riff 2 (1:09) x3

Chorus A (1:28) x1

Chorus B (1:39) x1

Chorus Fill (1:48) x1

Guitar with sound effects (no bass here)

Bridge (1:58) x1

G|---------------------------------------|---------------------------------|
D|---------------------------------------|---------------------------------|
A|---------------------------------------|---------------------------------|
E|-3-0--0-5-3-5-3--7--5--5-3-5--5-3--5-3-|-0-5-3-5-3--7--9--5-3-5--5-3-5-5-|

Intro (2:11) x3

Intro Fill (2:20) x1

Riff 2 (2:22) x2

Guitar (no bass)

Chorus A (2:34) x1

Chorus B (2:46) x1

Chorus Fill (2:55) x1

Riff 3 (2:57) x1
G|---------------|--------------------------|---------------|
D|---------------|--------------------------|---------------|
A|-0---0-3---00-3|--------------------------|---------------|
E|---------------|-5-5-5--5--5--5-5-5-5-5-3-|-5-5-5--5--5-5-|

Chorus Fill (3:07) x1

Chorus C (3:09)
Part1 (3:09) x2	Part2 (3:20) x2 
G|------------|-------------------------------------|
D|------------|-------------------------------------|
A|------------|-------------------------------------|
E|-3--5--7--9-|-33333333-55555555-77777777-99999999-|

Intro (3:31) x1 

Guitar outro with sound effects
            
Submit corrections

comments powered by Disqus
↑ Back to top | Switched Bass for Inside. Lyrics for acoustic guitar and electric guitar. 1 Tablatures and chords are parodies/interpretations of the original songs. You may use it for private study, scholarship, research or language learning purposes only