>
 >
Anymore 1

Anymore 1 Guitar Tabs

Switched - Anymore 1 chords, tabs, tablatures, lyrics

Guitar lessons | Add/correct | Request | Top 50 tabs Artists:  A B C D E F G H I J K L M N O P Q R S T U V W X Y Z 0-9

Anymore 1 Guitar Tabs – Switched

CD, Sheet music, Poster

Do you like Anymore 1? Share with your friends now
Bass TabsTabsTabs v2
BAND: SW1TCHED


A|-14-14-14----|-14-14-14-14-|-14-14-14-14-|-14-14-14-14-|
F|-18-18-18----|-18-18-18-18-|-18-18-18-18-|-18-18-18-18-|
C|-------------|-------------|-------------|-------------|
G|-------------|-------------|-------------|-------------|
D|-------------|-------------|-------------|-------------|
A|-------------|-------------|-------------|-------------|


A|-14-14-14-14-|-14-14-14-14-|-14-14-14----|-14-14-14----|
F|-18-18-18-18-|-18-18-18-18-|-18-18-18----|-18-18-18----|
C|-------------|-------------|-------------|-------------|
G|-------------|-------------|-------------|-------------|
D|-------------|-------------|-------------|-------------|
A|-------------|-------------|-------------|-------------|


RIFF 1
               2X

A|-------------------------------|
F|-------------------------------|
C|-------------------------------|
G|-------------------------------|
D|-------------------------------|
A|-2-3-0-3-5-0-3-2-0-3-5-0-3-2---|


RIFF 2 (similar to riff 1)

A|---------------------------------------------------------|
F|---------------------------------------------------------|
C|---------------------------------------------------------|
G|---------------------------------------------------------|
D|---------------------------------------------------------|
A|-2-3-0-3-5-0-3-2-0-3-5-0-3-2-3-2-0-2-0-3-5-0-3-2-0-3-5-0-|

RIFF 2A

A|---------|
F|---------|
C|---------|            NOT
G|---------| RIFF 2A IS NOT PLAYED IN THE INTRO
D|---------|            NOT
A|-3-2-3-2-|


  1 2 3 4 FUUUUUUUUUUUUUUUUUUUCK!!!!

A|------------------------------------|
F|------------------------------------|
C|------------------------------------|
G|------------------------------------|
D|--------5-4---4--5-4---4-5-4--------|
A|--------3-2---2--3-2---2-3-2--------|


   W/WAH

A|----------------/14-14-14\------------|
F|----------------/18-18-18-\-----------|
C|--------------------------------------|
G|--------------------------------------|
D|--------------------------------------|
A|-3-2---2-3-2--------------------------|


A|----------------/14-14-14-14|
F|----------------/18-18-18-18|
C|----------------------------|
G|----------------------------|
D|----------------------------|
A|-3-2---2-3-2----------------|


VERSE

  ....it took years to......

A|-14-16x16x16x|16x16x16x16x|16x16x16x16---|
F|-18----------|------------|--------------|
C|-------------|------------|--------------|
G|-------------|------------|--------------|
D|-------------|------------|--------------|
A|-------------|------------|--------------|


A|-16x16x16x17x|17x14x14x14x|14x14x14x14-----|
F|-------------|------------|----------------|
C|-------------|------------|----------------|
G|-------------|------------|----------------|
D|-------------|------------|----------------|
A|-------------|------------|----------------|


A|-14x14x14x14x|14x14x14x17x|
F|-------------|------------|
C|-------------|------------|
G|-------------|------------|
D|-------------|------------|
A|-------------|------------|

RIFF 1 & 2 & 2A


CHORUS

You riiiiiiise
               2x
A|---------------------------------|
F|---------------------------------|
C|---------------------------------|
G|---------------------------------|
D|---------------------------------|
A|---0-2---3-5---3-2---3-5---3-2---|


I can't believe you.....Anymooooooooore

A|---------------|-------------------------------|
F|---------------|-------------------------------|
C|---------------|-------------------------------|
G|11--11--11--11-|11--11--(11)--5----5-5-5-5-5-5-|
D|-9---9---9---9-|-9---9---(9)--5----5-5-5-5-5-5-|
A|-7---7---7---7-|-7---7---(7)--3----3-3-3-3-3-3-|


Segue back to verse after chorus

A|---------------|
F|---------------|
C|-8--8--8--8--8-|
G|-7--7--7--7--7-|
D|-6--6--6--6--6-|
A|---------------|


VERSE
RIFF 1 & 2 & 2A
CHORUS

youll FALL

A|-------------------------------|
F|-------------------------------|
C|-------------------------------|
G|--------------------x-5-4-5-4--|
D|-------------------------------|
A|----2---x-3-2-3-2--------------|

P.M.|....|

A|---------------------------------|
F|---------------------------------|
C|---------------------------------|
G|--------4---4-3-4-3--------------|
D|------4-----2-1-2-1--------------|
A|--x-2-----x---------x-0-2-5-3~~--|


   FALL!!     FALL!!!    FALL!!!!!!

                       P.M. |...|
A|-----------------------------------------|
F|-----------------------------------------|
C|-----------------------------------------|
G|-----------------------------------------|
D|-4----5-4-5-4----5-4-5-4---4-4-5-4-5-4---|
A|-2----3-2-3-2----3-2-3-2---2-2-3-2-3-2---|


RIFF 1 & 2 & 2A

   You RIIIIISE YOU FALL
A|----|
F|----|
C|----|
G|-9--|   and rest of CHORUS
D|-9--|
A|-7--|


                             ANY..

A|---------------------------------|
F|---------------------------------|
C|---------------------------------|
G|---------------------------------|
D|---2-4---5-7---5-4---5-7---5-4---|
A|---0-2---3-5---3-2---3-5---3-2---|


     MOOOOOOOOOOOOOOOOOORE

A|---------------------------------|
F|---------------------------------|
C|---------------------------------|
G|---------------------------------|
D|---2-4---5-7---5-4---5-7---5-4---|
A|---0-2---3-5---3-2---3-5---3-2---|

do that a few times.....


A|------------------------|
F|------------------------|
C|-8--8--8--8--8-\--/8-\--|
G|-7--7--7--7--7-\--/7-\--|
D|-6--6--6--6--6-\--/6-\--|
A|------------------------|


comments, changes, screwups, updates, what have you, email





Comments


Popular Switched tabs & chords
Anymore Bass Tabs
Inside Bass Tabs
Skins Bass Tabs
Anymore Tabs
Iiii Walls Tabs
Inside Tabs
Walk Away Tabs
Walk Away 1 Tabs


Song lyrics



↑ Back to top | Tablatures and chords are parodies/interpretations of the original songs. You may use it for private study, scholarship, research or language learning purposes only
© 2014 AZChords.com Contact us | Privacy policy | DMCA | Add/correct tabs | Request tabs | Top 50 tabs