» » »

Swinging Blue Jeans, Hippy Hippy Shake Bass tabs (ver.1)

Artists:  A B C D E F G H I J K L M N O P Q R S T U V W X Y Z # 

Hippy Hippy Shake Bass tabs (ver.1)

Swinging Blue Jeans Tabs
 Rating:
4/5 (4 votes)
Hippy Hippy Shake lessons Tabs too difficult? Try these video lessons and learn fast
                TablEdited by Jan Bjorklund   
Fingering and positions as suggested by TablEdit, please use common sense.

Swinging Blue Jeans  -  Hippy Hippy Shake


Tuning : E A D G 	Time Signature: 4/4

 |       |       |       |        |       |       |       |        
|--------------------------------|--------------------------------|
|----------------2-----------2---|----------------2---2-------2---|
|0---0---4---0-----------4-------|0---0---4---0-----------4-------|
|--------------------------------|--------------------------------|

 |       |       |       |        |       |       |       |        
|--------------------------------|--------------------------------|
|--------------------------------|--------------------------------|
|----------------2---------------|----------------2---2-------2---|
|0---0---4---0-----------4-------|0---0---4---0-----------4-------|

 |       |       |       |        |       |       |       |        
|--------------------------------|--------------------------------|
|----------------2-----------2---|----------------2---2-------2---|
|0---0---4---0-----------4-------|0---0---4---0-----------4-------|
|--------------------------------|--------------------------------|

 |       |       |       |        |       |       |       |        
|--------------------------------|--------------------------------|
|--------1-------4-------1---4---|--------------------------------|
|2---2-------2-------------------|2-------------------------------|
|--------------------------------|--------------------------------|

 |       |       |       |        |       |       |       |        
|--------------------------------|--------------------------------|
|--------------------------------|--------------------------------|
|----------------2-----------2---|----------------2---2-------2---|
|0---0---4---0-----------4-------|0---0---4---0-----------4-------|

 |       |       |       |        |       |       |       |        
|--------------------------------|--------------------------------|
|--------------------------------|--------------------------------|
|----------------2-----------2---|----------------2---2-------2---|
|0---0---4---0-----------4-------|0---0---4---0-----------4-------|

 |       |       |       |        |       |       |       |        
|--------------------------------|--------------------------------|
|----------------2---------------|----------------2---2-------2---|
|0---0---4---0-----------4-------|0---0---4---0-----------4-------|
|--------------------------------|--------------------------------|

 |       |       |       |        |       |       |       |        
|--------------------------------|--------------------------------|
|--------------------------------|--------------------------------|
|----------------2-----------2---|----------------2---2-------0---|
|0---0---4---0-----------4-------|0---0---4---0-----------4-------|

 |       |       |       |        |       |       |       |        
|--------------------------------|--------------------------------|
|--------1-------4-------1---4---|--------------------------------|
|2---2-------2-------------------|0-------------------------------|
|--------------------------------|--------------------------------|

 |       |       |       |        |       |       |       |        
|--------------------------------|--------------------------------|
|--------------------------------|--------------------------------|
|----------------2---------------|----2---2---2---2---2---2---2---|
|0---0---4---0-----------4---0---|--------------------------------|

 |       |       |       |        |       |       |       |        
|--------------------------------|--------------------------------|
|--------------------------------|--------------------------------|
|--------------------------------|--------------------------------|
|0-----------------------2-------|0-------------------0---2---3---|

 |       |       |       |        |       |       |       |        
|--------------------------------|--------------------------------|
|--------------------------------|--------------------------------|
|--------------------------------|--------------------------------|
|0-------------------------------|0---0---2---2---3---3---4---4---|

 |       |       |       |        |       |       |       |        
|--------------------------------|--------------------------------|
|----------------2---------------|----------------2---2-------2---|
|0---0---4---0-----------4-------|0---0---4---0-----------4-------|
|--------------------------------|--------------------------------|

 |       |       |       |        |       |       |       |        
|--------------------------------|--------------------------------|
|--------------------------------|--------------------------------|
|----------------2---------------|----------------2-----------0---|
|0---0---4---0-----------4-------|0---0---4---0-----------4-------|

 |       |       |       |        |       |       |       |        
|--------------------------------|--------------------------------|
|--------1-------4-------1---4---|--------------------------------|
|2---2-------2-------------------|0-------------------------------|
|--------------------------------|--------------------------------|

 |       |       |       |        |       |       |       |        
|--------------------------------|--------------------------------|
|--------------------------------|--------------------------------|
|----------------2---------------|----2---2---2---2---2---2---2---|
|0---0---4---0-----------4-------|--------------------------------|

 |       |       |       |        |       |       |       |        
|--------------------------------|--------------------------------|
|--------------------------------|--------------------------------|
|----------------2-----------2---|----------------2---2-------2---|
|0---0---4---0-----------4-------|0---0---4---0-----------4-------|

 |       |       |       |        |       |       |       |        
|--------------------------------|--------------------------------|
|--------------------------------|--------------------------------|
|----------------2-----------2---|----------------2---2-------2---|
|0---0---4---0-----------4-------|0---0---4---0-----------4-------|

 |       |       |       |        |       |       |       |        
|--------------------------------|--------------------------------|
|----------------2-----------2---|----------------2---2-------2---|
|0---0---4---0-----------4-------|0---0---4---0-----------4-------|
|--------------------------------|--------------------------------|

 |       |       |       |        |       |       |       |        
|--------------------------------|--------------------------------|
|--------------------------------|--------------------------------|
|----------------2-----------2---|----------------2---2-------0---|
|0---0---4---0-----------4-------|0---0---4---0-----------4-------|

 |       |       |       |        |       |       |       |        
|--------------------------------|--------------------------------|
|--------1-------4-------1-------|----------------2---2-------2---|
|2---2-------2-------------------|0---0---4---0-----------4-------|
|--------------------------------|--------------------------------|

 |       |       |       |        |       |       |       |        
|--------------------------------|--------------------------------|
|--------------------------------|--------------------------------|
|----------------2-----------0---|----2---2---2---2-------2---2---|
|0---0---4---0-----------4-------|--------------------------------|

 |       |       |       |        |       |       |       |        
|--------------------------------|--------------------------------|
|--------------------------------|--------------------------------|
|--------------------------------|--------------------------------|
|0-----------------------2-------|0-----------------------2---3---|

 |       |       |       |        |       |       |       |        
|--------------------------------|--------------------------------|
|--------------------------------|--------------------------------|
|--------------------------------|--------------------------------|
|0-------------------------------|0---0---2---2---3---3---4---4---|

 |       |       |       |        |       |       |       |        
|--------------------------------|--------------------------------|
|----------------2-----------2---|----------------2---2-------2---|
|0---0---4---0-----------4-------|0---0---4---0-----------4-------|
|--------------------------------|--------------------------------|

 |       |       |       |        |       |       |       |        
|--------------------------------|--------------------------------|
|--------------------------------|--------------------------------|
|----------------2---------------|----------------2-----------0---|
|0---0---4---0-----------4-------|0---0---4---0-----------4-------|

 |       |       |       |        |       |       |       |        
|--------------------------------|--------------------------------|
|--------1-------4-------1---4---|--------------------------------|
|2---2-------2-------------------|0-------------------------------|
|--------------------------------|--------------------------------|

 |       |       |       |        |       |       |       |        
|--------------------------------|--------------------------------|
|--------------------------------|--------------------------------|
|----------------2-----------2---|--------------------------------|
|0---0---4---0-----------4-------|0-------------------------------|

 |       |       |       |        |       |       |       |        
|--------------------------------|--------------------------------|
|--------------------------------|--------------------------------|
|----------------2-----------2---|--------------------------------|
|0---0---4---0-----------4-------|0-------------------------------|

 |       |       |       |        |       |       |       |        
|--------------------------------|--------------------------------|
|--------------------------------|--------------------------------|
|----------------2-----------2---|--------------------------------|
|0---0---4---0-----------4-------|0-------1---0-------------------|

 |       |       |       |        |       |       |       |        
|--------------------------------|--------------------------------|
|--------------------------------|--------------------------------|
|--------------------------------|--------------------------------|
|--------------------------------|--------------------------------|
            
Submit corrections

comments powered by Disqus
↑ Back to top | Swinging Blue Jeans Bass for Hippy Hippy Shake. Lyrics for acoustic guitar and electric guitar. Tablatures and chords are parodies/interpretations of the original songs. You may use it for private study, scholarship, research or language learning purposes only