» » »

Spread Tabs (ver.1)

Artists:  A B C D E F G H I J K L M N O P Q R S T U V W X Y Z # 

Spread Tabs (ver.1)

Sw1tched
Rating:
0/5 (0 votes)

Hard to play? Try these video lessons and learn fast.
                When seen, hit the 7 as 
								     rapid as possible for 2 sec.
e :-----------------|-----------------|-----------------|-----------------|
B :-----------------|-----------------|-----------------|-----------------|
G :-----------------|-----------------|-----------------|-----------------|
D :-----------------|-----------------|-----------------|--7--------------|
A :-----------------|-----------------|-----------------|-----------------|
E :--0--1--0--------|--0--1--0--------|--0--1--0--------|-----------------|
A :--0--1--0--------|--0--1--0--------|--0--1--0--------|-----------------|
repeat fast after 3rd measure……………………………………………………………………………then this 
On the verse you do it fast then stop.  The cd will show you.

intro 2/chorus
e :-----------------------------------------------------------------------|
B :-----------------------------------------------------------------------|
G :-----------------------------------------------------------------------|
D :---------------7----------------------7--------------------------------|
A :-----------------------------------------------------------------------|
E :--0-1-0-0-1-0-----0-5-6---1--0-1-0-1-----------------------------------|
A :--0-1-0-0-1-0-----0-5-6---1--0-1-0-1-----------------------------------|
	
“its you that I need!!!!!”	 
e :---------------------|
B :---------------------|
G :---------------------|
D :---------------------|
A :--0-1-0-5-0-1-0-5----|
E :--0-1-0-5-0-1-0-5----|
A :--0-1-0-5-0-1-0-5----|                     
 




coming out soon called Stereolife. 
They are the guitarist and singer
of Fat.  Check them out soon. Rap/Metal.
and I will send you some mp3’s.  later!!
            
Hard to play? Try these video lessons and learn fast. | Correct




comments powered by Disqus
↑ Back to top | Tablatures and chords are parodies/interpretations of the original songs. You may use it for private study, scholarship, research or language learning purposes only