>
 >
Inside

Inside Guitar Tabs

Sw1tched - Inside chords, tabs, tablatures, lyrics

Guitar lessons | Add/correct | Request | Top 50 tabs Artists:  A B C D E F G H I J K L M N O P Q R S T U V W X Y Z 0-9

Inside Guitar Tabs – Sw1tched

CD, Sheet music, Poster

Do you like Inside? Share with your friends now
Tabs
SW1TCHED

Tuning (low to high): A-E-A-D-G-B

Intro:  (distortion with low bass/high treble):
[--------------------------------------------
[--------------------------------------------
[10-10-10-----10----10-10-10-10-10-----8-----
[10-10-10-----10----10-10-10-10-10-----8-----  4X
[-8--8--8------8-----8--8--8--8--8-----6-----
[--------------------------------------------

regular distortion
[--------------------------------
[--------------------------------
[--------------------------------
[3-3-3-----3---3-3-3-3-3---1-----  3X
[3-3-3-----3---3-3-3-3-3---1-----
[3-3-3-----3---3-3-3-3-3---1-----

[--------------------------------
[--------------------------------
[--------------------------------
[3-3-3-----3---3-3-1-0-----------
[3-3-3-----3---3-3-----1-0-------
[3-3-3-----3---3-3---------3-1---

pause- “Break my frustration...”

(distortion, palm muted)
[----------
[----------
[----------
[----------
[3---------
[3---1-3-1-

Verse (distortion, palm muted):
[------------------------------------------------
[------------------------------------------------
[------------------------------------------------
[------------------------------------------------  2X
[--------------------------------------1---0-----
[3-3-5-5-1-1---3---1-3-1-3-3-5-5-1-1---------3-1-

Pre-chorus (distortion, palm muted):
[------------------------------------------------
[------------------------------------------------
[------------------------------------------------
[3-3-5-5-1-1---3---1-3-1-3-3-5-5-1-1-------------
[--------------------------------------1---0-----
[--------------------------------------------3---

pause

Chorus (distortion):
[--------------------------------
[--------------------------------
[--------------------------------
[3-------3-------3---------------  3X
[3-------3-------3---------------
[3-------3-------3---------1-----

[--------------------------------
[--------------------------------
[--------------------------------
[3-------3-------3-1-0-----------
[3-------3-------3-----1-0-------
[3-------3-------3---------3-1---

[--------------------------------
[--------------------------------
[--------------------------------
[3-------3-------3---------------  3X
[3-------3-------3---------------
[3-------3-------3---------1-----

[--------------------------------
[--------------------------------
[--------------------------------
[3-------3-3-3-----3-3-----------
[3-------3-3-3-------------8-8---
[3-------3-3-3-4-------6---------
end of chorus

(no distortion)
[-----------
[-----------
[-----------
[3----------
[3----------
[3----------

verse

Post-verse (distortion)
[------------------------------------------------
[------------------------------------------------
[------------------------------------------------
[3-3-5-5-1-1---3---1-3-1-3-3-5-5-1-1-------------
[3-3-5-5-1-1---3---1-3-1-3-3-5-5-1-1---1---0-----
[3-3-5-5-1-1---3---1-3-1-3-3-5-5-1-1---------3-1-

[------------------------------------------------
[------------------------------------------------
[------------------------------------------------
[3-3-5-5-1-1---3---1-3-1-3-3-5-5-1-1-------------
[3-3-5-5-1-1---3---1-3-1-3-3-5-5-1-1---1---0-----
[3-3-5-5-1-1---3---1-3-1-3-3-5-5-1-1---------3---

chorus

Bridge (distortion with low bass/high treble):
[--------------------------------------------
[--------------------------------------------
[10-10-10-----10----10-10-10-10-10-----8-----
[10-10-10-----10----10-10-10-10-10-----8-----  3X
[-8--8--8------8-----8--8--8--8--8-----6-----
[--------------------------------------------

[--------------------------------------------
[--------------------------------------------
[10-10-10-----10----10-10-10-10-10-----------
[10-10-10-----10----10-10-10-10-10-----1-----  4X
[-8--8--8------8-----8--8--8--8--8-----1-----
[--------------------------------------1-----
                                       ^enter distortion here

play this 2X
[----------------------bend this note--------------------------
[------------------------|-------------------------------------
[------------------------|-------------------------------------
[------------------------V-------------------------------------
[--------------------------------------------------------------
[1---3-1-3-3-------------7---------------1-3-1-----3-1---3-1---

[--------------------------------
[--------------------------------
[--------------------------------
[3-3-3-----3---3-3-3-3-3---1-----  4X
[3-3-3-----3---3-3-3-3-3---1-----
[3-3-3-----3---3-3-3-3-3---1-----

[------------------------------------------------
[------------------------------------------------
[------------------------------------------------
[3-3-5-5-1-1---3---1-3-1-3-3-5-5-1-1---3---1-3-1-
[3-3-5-5-1-1---3---1-3-1-3-3-5-5-1-1---3---1-3-1-
[3-3-5-5-1-1---3---1-3-1-3-3-5-5-1-1---3---1-3-1-

[------------------------------------------------
[------------------------------------------------
[------------------------------------------------
[3-3-5-5-1-1---3---1-3-1-3-3-5-5-1-1-------------
[3-3-5-5-1-1---3---1-3-1-3-3-5-5-1-1---1---0-----
[3-3-5-5-1-1---3---1-3-1-3-3-5-5-1-1---------3---

Pre-Ending (distortion with low bass/high treble):
[--------------------------------
[------------------2-2-2-2-2-2-2-
[------------------1-1-1-1-1-1-1-
[3-3-3-4-4-4-1-1-1-0-0-0-0-0-0-0-
[--------------------------------
[--------------------------------
                   ^palm muted until here

chorus

Odd chorus:
[--------------------------------
[--------------------------------
[--------------------------------
[3-----------------------1-------
[3-----------------------1-------
[3-----------------------1-------

[--------------------------------
[--------------------------------
[--------------------------------
[--------------------------1-----
[--------------------------1-----
[--------------------------1-----

[--------------------------------
[--------------------------------
[--------------------------------
[3-------3-------3---------1-----
[3-------3-------3---------1-----
[3-------3-------3---------1-----

[--------------------------------
[--------------------------------
[--------------------------------
[3-------3-3-3-----3-3-----------
[3-------3-3-3-------------8-8---
[3-------3-3-3-4-------6---------

Ending (distortion):
[--------------------------------
[--------------------------------
[--------------------------------
[------3---3---3-------3---3---3-
[--------------------------------\
[1-1-1-----------3-3-3----------- \
                                   play 4X
[-------------------------------- /
[--------------------------------/
[--------------------------------
[------3---3-----------8---------
[------------------8-------8-----
[4-4-4---------6-6---------------

[--------------------------------
[--------------------------------
[--------------------------------
[1-----1-----1-----1-----1---1---
[1-----1-----1-----1-----1---1---
[1-----1-----1-----1-----1---1---

[--------------------------------
[--------------------------------
[--------------------------------
[3-3-3-----3---3-3-3-3-----1-----
[3-3-3-----3---3-3-3-3-----1-----
[3-3-3-----3---3-3-3-3-----1-----
                           ^end on this note and let ring. . .

~35 Lives





Comments


Popular Sw1tched tabs & chords
Anymore Tabs
Iiii Walls Tabs
Spread Tabs
Walk Away Tabs


Song lyrics



↑ Back to top | Tablatures and chords are parodies/interpretations of the original songs. You may use it for private study, scholarship, research or language learning purposes only
© 2014 AZChords.com Contact us | Privacy policy | DMCA | Add/correct tabs | Request tabs | Top 50 tabs