>
 >
Iiii Walls

Iiii Walls Guitar Tabs

Sw1tched - Iiii Walls chords, tabs, tablatures, lyrics

Guitar lessons | Add/correct | Request | Top 50 tabs Artists:  A B C D E F G H I J K L M N O P Q R S T U V W X Y Z 0-9

Iiii Walls Guitar Tabs – Sw1tched

CD, Sheet music, Poster

Do you like Iiii Walls? Share with your friends now
Tabs


INTRO
-----

Guitar 1

W/WAH

A|000000000000000000000000000000|
F|------------------------------|
C|------------------------------|
G|------------------------------|
D|------------------------------|
A|------------------------------|


Guitar 2
Riff 1

P.M.
|...........................|

A|----------------------------|
F|---------------4-----3----3-|
C|--------3-------------------|
G|-2-3-2----2-2----2-2---2-2--|
D|----------------------------|
A|----------------------------|


Riff 2

A|---------------------------------|
F|---------------------------------|
C|---------------------------------|
G|---------------------------------|
D|---3----8-------14-----13-----13-|
A|-0-1-0--6-0-0-x-12-0-0-11-0-0-11-|
                 |               |
               MUTE            1/4 bend


VERSE
-----

	W/WAH

A|-------------------------|
F|-------------------------|
C|----------3-3-3-3--------|
G|----------2-2-2-2--------|
D|-------------------------|
A|-------------------------|
|
|
|Bassline
|
C|-------------------------|
G|-------------------------|
D|-------------------------|
A|-0--0--0------------0--x-|


          W/WAH

A|---------------------------|
F|---------------------------|
C|---------------------------|
G|-----222222222222222222222-|
D|---------------------------|
A|---------------------------|
|
|
|Bassline
|
C|------------------------------|
G|------------------------------|
D|------------------------------|
A|-0--0--0------------0----0--x-|



segue to chorus

A|-------------|
F|-------------|
C|-------------|
G|-------------|
D|-3-2-3-3-3-3-|
A|-1-0-1-1-1-1-|

CHORUS
------
   A               Db

A|----------------------------------|
F|----------------------------------|
C|----------------------------------|
G|-22222222222222228888888888888888-|
D|-22222222222222228888888888888888-|
A|-00000000000000006666666666666666-|

   D               Ab

A|----------------------------------|
F|----------------------------------|
C|-----------------8888888888888888-|
G|-77777777777777778888888888888888-|
D|-77777777777777776666666666666666-|
A|-5555555555555555-----------------|

   A               Db

A|----------------------------------|
F|----------------------------------|
C|----------------------------------|
G|-22222222222222228888888888888888-|
D|-22222222222222228888888888888888-|
A|-00000000000000006666666666666666-|

   D               C

A|----------------------------------|
F|----------------------------------|
C|----------------------------------|
G|-77777777777777775555555555555555-|
D|-77777777777777775555555555555555-|
A|-55555555555555553333333333333333-|


RIFF 2 W/SLIGHTLY DIFFERENT MUTING
VERSE
SEGUE
CHORUS


RIFF 3

P.M.
|.......................................|

A|---------------------------------------|
F|---------------------------------------|
C|---------------------------------------|
G|-------7-7-6-6-------------------------|
D|-8-7-7---------8-8-7-7-----------------|
A|-----------------------6-6-5-5-5-1-0-0-|


P.M
|.........................|

A|-------------------------|
F|-------------------------|
C|-------------------------|
G|---------7-7-6-6---------|
D|-8-8-7-7---------8-8-7-7-|
A|-------------------------|


PART AFTER PALM MUTING (RIFF 3)


RIFF 4

P.M.
      |....|        |....|

A|---------------------------|
F|---------------------------|
C|---------------------------|
G|---------------------------|
D|-2---2-2---5---5---2-2-----|
A|-0---0-0---3---3---0-0-----|


P.M.
      |....|        |...|

A|---------------------------|
F|---------------------------|
C|---------------------------|
G|---------------------------|
D|-2---2-2---5---5---5-5/7-7-|
A|-0---0-0---3---3---3-3/5-5-|


REPEAT RIFF 2 W/DIFFERENT DYNAMICS OF COURSE




THAT'S ALL THE RIFFS, AS FAR AS I KNOW, COMMENTS, CORRECTIONS, EMAIL





Comments


Popular Sw1tched tabs & chords
Anymore Tabs
Inside Tabs
Spread Tabs
Walk Away Tabs


Song lyrics



↑ Back to top | Tablatures and chords are parodies/interpretations of the original songs. You may use it for private study, scholarship, research or language learning purposes only
© 2014 AZChords.com Contact us | Privacy policy | DMCA | Add/correct tabs | Request tabs | Top 50 tabs