>
 >
Anymore

Anymore Guitar Tabs

Sw1tched - Anymore chords, tabs, tablatures, lyrics

Guitar lessons | Add/correct | Request | Top 50 tabs Artists:  A B C D E F G H I J K L M N O P Q R S T U V W X Y Z 0-9

Anymore Guitar Tabs – Sw1tched

CD, Sheet music, Poster

Do you like Anymore? Share with your friends now
Tabs
Sw1tched

Tuning: A-E-A-D-G-B

Intro (distortion):
[12-12-12----12-12-12-12-
[15-15-15----15-15-15-15-
[------------------------\
[------------------------ \
[------------------------  \
[------------------------   \
                             \
[12-12-12-12-12-12-12-12-     \
[15-15-15-15-15-15-15-15-      \
[------------------------       \
[------------------------2X    play this whole thing 4X
[------------------------       /
[------------------------      /
                              /
[12-12-12----12-12-12----    /
[15-15-15----15-15-15----   /
[------------------------  /
[------------------------ /
[------------------------/
[------------------------

enter second guitar 3rd time above is played
(distortion):
[--------------------------------
[--------------------------------
[--------------------------------
[--------------------------------  play 2X
[--------------------------------
[2-3-0-3-5-0-3-2-0-3-5-0-3-2-----

[--------------------------------
[--------------------------------
[--------------------------------
[--------------------------------
[--------------------------------
[2-3-0-3-5-0-3-2-0-3-5-0-3-2-3-2-

[--------------------------------
[--------------------------------
[--------------------------------
[--------------------------------
[--------------------------------
[2-3-0-3-5-0-3-2-0-3-5-0-3-2-----

[--------------------------
[--------------------------
[--------------------------
[--------------------------
[14/0-(this is a slide down)
[14/0-----------------------

[--------------------------------
[--------------------------------
[--------------------------------
[2-3-0-3-5-0-3-2-0-3-5-0-3-2-----  play 2X
[2-3-0-3-5-0-3-2-0-3-5-0-3-2-----
[2-3-0-3-5-0-3-2-0-3-5-0-3-2-----

[--------------------------------
[--------------------------------
[--------------------------------
[2-3-0-3-5-0-3-2-0-3-5-0-3-2-3-2-
[2-3-0-3-5-0-3-2-0-3-5-0-3-2-3-2-
[2-3-0-3-5-0-3-2-0-3-5-0-3-2-3-2-

                        1   2   3   4...
[--------------------------------------
[--------------------------------------
[------------------------6---6---6---6-
[2-3-0-3-5-0-3-2-0-3-5-0-5---5---5---5-
[2-3-0-3-5-0-3-2-0-3-5-0-4---4---4---4-
[2-3-0-3-5-0-3-2-0-3-5-0---------------

..FUCK!!!
[--------------------------------
[--------------------------------
[--------------------------------
[3-2-----2---3-2-----2---3-2-----  play 4X
[3-2-----2---3-2-----2---3-2-----
[3-2-----2---3-2-----2---3-2-----

Verse:
[----14--14--14--14--14--14--14--
[--------------------------------
[--------------------------------
[--------------------------------
[--------------------------------
[--------------------------------

[14--14--14--14--14--14--14--15--
[--------------------------------
[--------------------------------
[--------------------------------
[--------------------------------
[--------------------------------

[15--12--12--12--12--12--12--12--
[--------------------------------
[--------------------------------
[--------------------------------
[--------------------------------
[--------------------------------

[12--12--12--12--12--12--12--15--
[--------------------------------
[--------------------------------
[--------------------------------
[--------------------------------
[--------------------------------

[14--14--14--14--14--14--14--14--
[--------------------------------
[--------------------------------
[--------------------------------
[--------------------------------
[--------------------------------

[14--14--14--14--14--14--14--15--
[--------------------------------
[--------------------------------
[--------------------------------
[--------------------------------
[--------------------------------

[15--12--12--12--12--12--12--12--
[--------------------------------
[--------------------------------
[--------------------------------
[--------------------------------
[--------------------------------

[12--12--12--12-(let ring)-------
[--------------------------------
[--------------------------------
[--------------------------------
[--------------------------------
[--------------------------------

Pre-chorus:
[--------------------------------
[--------------------------------
[--------------------------------
[2-3-0-3-5-0-3-2-0-3-5-0-3-2-----  play 2X
[2-3-0-3-5-0-3-2-0-3-5-0-3-2-----
[2-3-0-3-5-0-3-2-0-3-5-0-3-2-----

[--------------------------------
[--------------------------------
[--------------------------------
[2-3-0-3-5-0-3-2-0-3-5-0-3-2-3-2-
[2-3-0-3-5-0-3-2-0-3-5-0-3-2-3-2-
[2-3-0-3-5-0-3-2-0-3-5-0-3-2-3-2-

[--------------------------------
[--------------------------------
[--------------------------------
[2-3-0-3-5-0-3-2-0-3-5-0-3-2-----
[2-3-0-3-5-0-3-2-0-3-5-0-3-2-----
[2-3-0-3-5-0-3-2-0-3-5-0-3-2-----

Chorus:
[--------------------------------
[--------------------------------
[--------------------------------
[0-2---3-5---3-2---3-5---3-2-----  play 2X
[0-2---3-5---3-2---3-5---3-2-----
[0-2---3-5---3-2---3-5---3-2-----

[--------------------------------
[--------------------------------
[--------------------------------
[7---7---7---7---7---7-------3---
[7---7---7---7---7---7-------3---
[7---7---7---7---7---7-------3---

[--------------------------------
[--------------------------------
[--------------------------------
[------3---3---3---3---3---3---3-
[------3---3---3---3---3---3---3-
[------3---3---3---3---3---3---3-

Brief interlude:
[--------------------------------
[--------------------------------
[--------------------------------
[0-2---3-5---3-2---3-5---3-2-----  play 2X
[0-2---3-5---3-2---3-5---3-2-----
[0-2---3-5---3-2---3-5---3-2-----

[--------------------------------
[--------------------------------
[6---6---6---6---6---------------
[5---5---5---5---5-(let ring)----
[4---4---4---4---4---------------
[--------------------------------

verse

pre-chorus

chorus

Bridge:
[----------------------------------------------------------------
[----------------------------------------------------------------
[----------------------------------------------------------------
[--------------------3-2-3-2---------2---7-6-7-6---0-2-5-3-------
 play 4X
[----------------------------------------7-6-7-6---0-2-5-3-------
[2-------3-2-3-2---------------2-0-2-----7-6-7-6---0-2-5-3-------

[--------------------------------------------
[--------------------------------------------
[--------------------------------------------
[2-------3-2-3-2-----3-2-3-2---------2-------
[2-------3-2-3-2-----3-2-3-2-----------------
[2-------3-2-3-2-----3-2-3-2---2-0-2---0-2-3-

pre-chorus

clean until..............here
[------------------------|-------
[------------------------v-------
[--------------------------------
[------------------------7-------
[------------------------7-------
[2-3-0-3-5-0-3-2-0-3-5-0-7-------

chorus 2X

Ending:
[--------------------------------
[--------------------------------
[--------------------------------
[0-2---3-5---3-2---3-5---3-2-----  play 4X
[0-2---3-5---3-2---3-5---3-2-----
[0-2---3-5---3-2---3-5---3-2-----

[--------------------------------
[--------------------------------
[6---6---6---6---6---6---6/0-----
[5---5---5---5---5---5---5/0-----
[4---4---4---4---4---4---4/0-----
[--------------------------------
                         ^end on





Comments


Popular Sw1tched tabs & chords
Iiii Walls Tabs
Inside Tabs
Spread Tabs
Walk Away Tabs


Song lyrics



↑ Back to top | Tablatures and chords are parodies/interpretations of the original songs. You may use it for private study, scholarship, research or language learning purposes only
© 2014 AZChords.com Contact us | Privacy policy | DMCA | Add/correct tabs | Request tabs | Top 50 tabs