» » »

Supertramp, Give A Little Bit Tabs (ver.2)

Artists:  A B C D E F G H I J K L M N O P Q R S T U V W X Y Z # 

Give A Little Bit Tabs (ver.2)

Supertramp Tabs
 Rating:
4/5 (19 votes)
Give A Little Bit lessons Tabs too difficult? Try these video lessons and learn fast
                Capo 1st fret

Intro:

A7 D   A7 D   G A7   G A7   G(x2)

D               A7 D                     G  A7            G A7 G
Give a little bit, give a little bit of your love to me
D               A7 D                         G   A7          G A7 G
Give a little bit, I'll give a little bit of my love to you
Bm                      Esus4      E
There's so much that we need to share
    G                Bm        A7
So send a smile and show you care

                    A7
e-----0--------0----0--|
b-----3--------5----2--|
g-----0--------0----0--|
d-----4--------5----2--|
a----------------------|
e----------------------|

D                A7 D                        G    A7           G A7 G
Give a little bit, I'll give a little bit of my life for you
D                 A7 D                      G    A7            G A7 G
So give a little bit, give a little bit of your time to me
Bm                     Esus4    E
See the man with the lonely eyes
    G                   Bm       A7
So take his hand you'll be surprised

                   A7
e-----0--------0----0--|
b-----3--------5----2--|
g-----0--------0----0--|
d-----4--------5----2--|
a----------------------|
e----------------------|

D              A7 D                       G   A7           G A7 G
Give a little bit, give a little bit of your love to me
D               A7 D                       G    A7          G A7 G
Give a little bit, i'll give a little bit my life for you
Bm                     Esus4    E
Now's the time that we need to share
    G                   C      G
So find yourself we're on our way back home


    A7
e----0--------0--------0--------0----|
b----2--------3--------5--------7----|
g----0--------0--------0--------0----|   (x3)
d----2--------4--------5--------7----|
a------------------------------------|
e------------------------------------|


{Riff 1}
     D                           D
e----2--------7--------5----3----2---|
b----3--------8--------5----3----3---|
g----2--------7--------6----4----2---|
d----0--------0--------0----0----0---|
a------------------------------------|
e------------------------------------|

{Riff 2}
                     D
e----0----------3----2---|
b----1----------0----3---|
g----0----------0----2---|
d----0----------0----0---|
a------------------------|
e------------------------|


[{Riff 1} {Riff 2}] (x4) {Riff 2} (x2)

           C9                Em7             C9 Em7
e-----------0-----------------0---------------0--0--0---|
b-----------3-----------------3---------------3--3--5---|
g-----------0-----------------0---------------0--0--0---|
d-----------2-----------------0---------------2--0--5---|
a-----------3-----------------2---------------3--2------|
e-------------------------------------------------------|

Come a long way, such a long ride, come a long way, sing it tonight

     D                           D
e----2--------7--------5----3----2---            e-----14----|
b----3--------8--------5----3----3---   end on>  b-----15----|
g----2--------7--------6----4----2---            g-----14----|
d----0--------0--------0----0----0---            d------0----|
a------------------------------------            a-----------|
e------------------------------------            e-----------|
            
Submit corrections

comments powered by Disqus
↑ Back to top | Supertramp Tabs for Give A Little Bit. Lyrics for acoustic guitar and electric guitar. Tablatures and chords are parodies/interpretations of the original songs. You may use it for private study, scholarship, research or language learning purposes only