» » »

Tonight Bass tabs (ver.1)

Artists:  A B C D E F G H I J K L M N O P Q R S T U V W X Y Z # 

Tonight Bass tabs (ver.1)

Super Tones
Rating:
0/5 (0 votes)
Tabs too difficult? Try these video lessons and learn fast.
                “Tonight”
<from the album “Supertones Strike Back”
(c) 1997 BEC Records



Intro


play 2X
G-----4--------2-----------------------------------
D--------------------------------------------------
A--7-----7--5-----5-------------14--12--9--5-------
E--------------------5-3-5-5-5---------------------


Verse
play 5X
G-------------------------------- 
D--7---5-5--3---3-2-3-5----------
A-------------3------------------
E--------------------------------


G--------------------------------------------------
D--------------------------------------------------
A--7-7-7-7-7-5-5-5-5-5-3-3-3---3--2-3-5--7-7-7-7-7-
E----------------------------3---------------------


G--------------------------------------------------
D--------------------------------------------------
A-7-7-7-7-7-7-7-7-----------------------7-7-7-7-7-7
E------------------0-3-5-5-3-5-5-5-3-5-------------


G---------------------------
D---------------------------
A-7-7-----------------------
E-----0-3-5-5-3-5-5-5-3-5---


Chorus


G--------------------------------------------------
D--------------------------------------------------
A-7--7-7--7-7--7-5-7-10-5--5-5--5-5--5-7-5-2-------
E--------------------------------------------3--3-3


G--------------------------------------------------
D--------------------------------------------------
A---------------------------------7--7-7--7-5-7-10-
E-2-3-5-7-3-0-0-0-0-0-0-0-0-0-0--------------------


G---------------------------------------------------------
D---------------------------------------------------------
A-5--5-5--5-5--5-7-5-2------------------------------------
E----------------------3--3-3-2-3-5-7-3-0-0-0-0-0-0-0-0-0-



Intro


Verse


Chorus


Intro 2X


Chorus


G--------------------------------------------------
D--------------------------------------------------
A-7--7-7--7-7--7-5-7-10--5--5-5--5-5--5-7-5-2------
E---------------------------------------------3--3-


G--------------------------------------------------
D--------------------------------------------------
A----------------------------------7--7-7--7-7--7-5
E-3--2-3-5-7-3-0-0-0-0-0-0-0-0-0-0-----------------


G--------------------------------------------------
D--------------------------------------------------
A-7-10-5--5-5--5-5--5-7-5-2------------------------
E---------------------------3--3-3--2-3-5-7-3-0-0-0


G--------------------------------------------------
D--------------------------------------------------
A-------------------7-------5----------------------
E-0-0-0-0-0-0-0---------------------3--2-3-5-7-3-0-
            
Tabs too difficult? Try these video lessons and learn fast.


comments powered by Disqus
↑ Back to top | Tablatures and chords are parodies/interpretations of the original songs. You may use it for private study, scholarship, research or language learning purposes only