» » »

Supertones Strike Back Tabs (ver.1)

Artists:  A B C D E F G H I J K L M N O P Q R S T U V W X Y Z # 

Supertones Strike Back Tabs (ver.1)

Super Tones
Rating:
0/5 (0 votes)

Hard to play? Try these video lessons and learn fast.
                PROPS GO TO: Chris Fawcett

Intro (heavy distortion)
E-------------------------------------------------------------------------
B-------------------------------------------------------------------------
G-------------9--------------9/7--------------9--------------9/7----------
D--2-2-2-2-2--9---2-2-2-2-2--9/7---2-2-2-2-2--9---2-2-2-2-2--9/7----------
A--2-2-2-2-2--7---2-2-2-2-2--7/5---2-2-2-2-2--7---2-2-2-2-2--7/5----------
E--0-0-0-0-0------0-0-0-0-0--------0-0-0-0-0------0-0-0-0-0---------------

E-------------------------------------------------------------------------
B-------------------------------------------------------------------------
G-------------9--9--------------9/7-7--------------9--9--------------9/7-7
D--2-2-2-2-2--9--9---2-2-2-2-2--9/7-7---2-2-2-2-2--9--9---2-2-2-2-2--9/7-7
A--2-2-2-2-2--7--7---2-2-2-2-2--7/5-5---2-2-2-2-2--7--7---2-2-2-2-2--7/5-5
E--0-0-0-0-0---------0-0-0-0-0----------0-0-0-0-0---------0-0-0-0-0-------

E-------------------------------------------------------------------------
B-------------------------------------------------------------------------
G-------------------------------------------------------------------------
D---7--5--4--2------------------------------------------------------------
A---7--5--4--2------------------------------------------------------------
E---5--3--2--0------------------------------------------------------------

Verse 1 (no distortion all ska strokes)
    A     C     D    Dsus D  A     C     D    Dsus D
E---5--5---------------------5--5-----------------------------------------
B---5--5--5--5--7--7--8---7--5--5--5--5--7--7--8---7----------------------
G---6--6--5--5--7--7--7---7--6--6--5--5--7--7--7---7----------------------
D---7--7--5--5--7--7--7---7--7--7--5--5--7--7--7---7----------------------
A---7--7--3--3--5--5--5---5--7--7--3--3--5--5--5---5----------------------
E---5--5---------------------5--5-----------------------------------------
Repeat 6 times

Chorus (heavy distortion)

E-------------------------------------------------------------------------
B-------------------------------------------------------------------------
G--------------------------------7--7--7-7-7-7--9--9--9-9-9-9-------------
D--7--7--7-7-7-7--4--4--4-4-4-4--7--7--7-7-7-7--9--9--9-9-9-9-------------
A--7--7--7-7-7-7--4--4--4-4-4-4--5--5--5-5-5-5--7--7--7-7-7-7-------------
E--5--5--5-5-5-5--2--2--2-2-2-2-------------------------------------------
Repeat twice 2nd time repeat the E Power chord pattern twice then play the
chorus over again without the words

Bridge (Heavy Distortion

E-------------------------------------------------------------------------
B-------------------------------------------------------------------------
G---------------------5----------------------5----------------------------
D--7--7--2---4-4-4-4--5---7--7--2---4-4-4-4--5----------------------------
A--7--7--2---4-4-4-4--3---7--7--2---4-4-4-4--3----------------------------
E--5--5--0---2-2-2-2------5--5--0---2-2-2-2-------------------------------
Repeat 4 times last time do the F# power chord 8 times then go straight
into the chorus

Order:
Intro
Verse1
Chorus
Verse2
Bridge
Chorus
Chorus
End on A Power chord strumming rapidly about 16 times then twice with
instant cut off at the sound of the drum

Any questions, comments, or corrections
            
Hard to play? Try these video lessons and learn fast. | Correct




comments powered by Disqus
↑ Back to top | Tablatures and chords are parodies/interpretations of the original songs. You may use it for private study, scholarship, research or language learning purposes only