» » »

Super Tones, Return Of The Revolution Bass tabs (ver.2)

Artists:  A B C D E F G H I J K L M N O P Q R S T U V W X Y Z # 

Return Of The Revolution Bass tabs (ver.2)

Super Tones Tabs
 Rating:
4/5 (4 votes)
Return Of The Revolution lessons Tabs too difficult? Try these video lessons and learn fast
1
                             RETURN OF THE REVOLUTION - The O.C. Supertones

Intro:
G|----------------------|
D|----------------------|
A|----0-2----2-0--------|       } x4
E|--2------------2------|

Verse:
G|-----------------------------------------------------------|
D|------4--4-2-------------2--------4-4-2--------------------|
A|-------------4--2-2-2-4------------------4---2-2-----------|}pick your own
E|--2----------------------------2------------------0-1------|    slurs

Stuff:
G|------------------------------------------------|
D|------------------------------------------------|
A|------0-2-2-0-----0-2-2-0-----------------------|
E|--2-2---------2-2-------------------------------|

More Stuff:
G|------------------------|
D|------------------------|
A|-2-4---2-4---2-4---2-4--|
E|------------------------|

Other Stuff:
G|--------------------2----|
D|---4-2-4-2-----0---------|
A|------------4-----4------|     } all whole notes
E|-------------------------|

This song is totally lubricated. And octave-y.
            
Submit corrections

comments powered by Disqus
↑ Back to top | Super Tones Bass for Return Of The Revolution. Lyrics for acoustic guitar and electric guitar. 1 Tablatures and chords are parodies/interpretations of the original songs. You may use it for private study, scholarship, research or language learning purposes only