» » »

Super Tones, Resolution Tabs (ver.1)

Artists:  A B C D E F G H I J K L M N O P Q R S T U V W X Y Z # 

Resolution Tabs (ver.1)

Super Tones Tabs
 Rating:
4/5 (4 votes)
Resolution lessons Tabs too difficult? Try these video lessons and learn fast
1
                
The O.C. Supertones

I know that it looks confusing but listen to the song and youÕll pick it right up

			visit my Supertones web site  

	Intro
e----6----6--------5----5-----5----3----3-3-3-----------1
B----6-------6-----6------6---------4-------------4-------1
G----7--------7----7--------7------6-----------------5----2	repeat X 1
D----8--------------7----------------6----------------------3
A----8--------------5----------------3----------------------3
E----6--------------5----------------3----------------------1		

pre-verse
listen to the CD for the struming  rhythm
e----6----5----3----1
B----6----5----3----1
G----7----6----4----2	    repeat X 1
D----8----7----5----3
A----8----7----5----3
E----6----5----3----1
Verse
e----6----5----3----5
B----6----6----4----6
G----7----7----5----7
D----8----7----5----7  	     repeat X 1
A----8----5----3----5
E----6----5----3----5
i havenÕt  figured out the pre-chorus yet (itÕs hard to figure out)
Chorus
e----6----3-----8----11--11----10----5------6----5-----8----11--11----10----5----
B----6----3-----8----11--11----10----5------6----5-----8----11--11----10----5----
G----6----3-----8----11--11----10----5------6----5-----8----11--11----10----5----
D----8----5----10---13--13----12----7------8----7----10---13--13----12----7----
A----8----5----10---13--13----12----7------8----7----10---13--13----12----7----
E----6----3-----8----11--11----10----5------6----5-----8----11--11----10----5----

e----8----13----8----11----13----11
B----8----13----8----11----13----11
G----8----13----8----11----13----11
D---10----15---10--13----15----13
A---10----15---10--13----15----13
E----8----13----8----11----13----11

pre-verse
e----6----5----3----1
B----6----5----3----1
G----6----7----5----3	    repeat X 1
D----8----7----5----3
A----8----5----3----1
E----6----5----3----1
verse
e----6----5----3----5
B----6----6----4----6
G----7----7----5----7
D----8----7----5----7  	     repeat X 1
A----8----5----3----5
E----6----5----3----5

Chorus
e----6----3-----8----11--11----10----5------6----3-----8----11--11----10----5----
B----6----3-----8----11--11----10----5------6----3-----8----11--11----10----5----
G----6----3-----8----11--11----10----5------6----3-----8----11--11----10----5----
D----8----5----10---13--13----12----7------8----5----10---13--13----12----7----
A----8----5----10---13--13----12----7------8----5----10---13--13----12----7----
E----6----3-----8----11--11----10----5------6----3-----8----11--11----10----5----

e----8----13----8----11----13----11----10----11----6----3----8----13----11
B----8----13----8----11----13----11----10----11----6----3----8----13----11
G----8----13----8----11----13----11----10----11----6----3----8----13----11
D---10----15---10--13----15----13----12----13----8----5----10---12----13
A---10----15---10--13----15----13----12----13----8----5----10---12----13
E----8----13----8----11----13----11----10----11----6----3----8----13----11

Interlude
e----6----3----8----13----13
B----6----3----8----13----13
G----6----3----8----13----13 	    repeat X 1
D----8----5---10---15----11
A----8----5---10---15----11
E----6----3----8----13----13

outro
e----6
B----6
G----7
D----8
A----8
E----6

intro	
pre-verse
verse	
pre-chorus
chorus
verse
pre-verse 
verse
interlude 
chorus 
outro 
(play outro during the bass and sax solo untill the song ends)
            
Submit corrections

comments powered by Disqus
↑ Back to top | Super Tones Tabs for Resolution. Lyrics for acoustic guitar and electric guitar. 1 Tablatures and chords are parodies/interpretations of the original songs. You may use it for private study, scholarship, research or language learning purposes only