>
 >
Resolution

Resolution Bass Tabs

Super Tones - Resolution chords, tabs, tablatures, lyrics

Guitar lessons | Add/correct | Request | Top 50 tabs Artists:  A B C D E F G H I J K L M N O P Q R S T U V W X Y Z 0-9

Resolution Bass Tabs – Super Tones

CD, Sheet music, Poster

Do you like Resolution? Share with your friends now
Bass TabsChordsTabsTabs v2
Copyright: 1997 BEC recordings

Intro:
G------------------------------------------0-------0-------------------
D-------0-------0-------13431--13431--0--24-42-0024-42-2-0-------------
A--0--24-42-0024-42--4-------44----------------------------4-2-------0-
E--------------------------------------------------------------0-2-4---

G------------------------------------------0-------0-------------------
D-------0-------0-------13431--13431--0--24-42-0024-42-2-0---0-2-0-----
A--0--24-42-0024-42--4-------44----------------------------4-------4-2-
E----------------------------------------------------------------------

Verse:
G-----------------------------1----------------2-0--------------------
D-----------2-0----------2------4-----0--04-00-----0-2-0--------------
A--0--04-00-----0---4--4---44-----4----------------------4-2-------0--
E------------------------------------------------------------0-2-4----

G-----------------------------1----------------2-0--------------------
D-----------2-0----------2------4-----0--04-00-----0-2-0---0-2-0------
A--0--04-00-----0---4--4---44-----4----------------------4-------4-2--
E---------------------------------------------------------------------

G------------------------2024-2-------22---22-----------------------------------------------
D-0-00-00-00----2-22-22-2-------2---2----2----2-4-------44---44---0-00-00-00---2-22-22\-----
A-----------024-------------------0---------------4---4----4----4-----------024-------------
E---------------------------------------------------2----------------------------------024--

After Verse Riff #1:
G------------
D------------
A-0-----2----
E----2-----0-  (2x)

After Verse Riff #2:
G-------------
D----------0--
A-0-----2-----
E----2-------- (2x)
NOTE: Make up your own rythm for these notes, I could not pick out a
particular one so I just put one note for each rythm.

"Looking Back":
G-------------------------------------------------------------
D-----------------2-2-2-2-2-2-2-2--------------------0-2-0-00-
A-2-2-2-2-2-2-2-2-----------------2-2-2-2-2-2-2-2--2----------
E-------------------------------------------------------------

G------------------------------------------0-------0-------------------
D-------0-------0-------13431--13431--0--24-42-0024-42-2-0-------------
A--0--24-42-0024-42--4-------44----------------------------4-2-------0-
E--------------------------------------------------------------0-2-4---

G------------------------------------------0-------0-----0-4-0-2-0----------
D-------0-------0-------13431--13431--0--24-42-0024-42-2-----------4-2------
A--0--24-42-0024-42--4-------44---------------------------------------------
E---------------------------------------------------------------------------

Verse 2:
G-------------------------------1------------0--2-0--------------------
D-------0----2-0----------23------4-----0--04-00-----0-2-0--------------
A--0--04-00------0---4--4----44-----4----------------------4-2-------0--
E--------------------------------------------------------------0-2-4----

G-------------------------------1------------0--2-0--------------------
D-------0----2-0----------23------4-----0--04-00-----0-2-0---0-2-0------
A--0--04-00------0---4--4---44------4----------------------4-------4-2--
E---------------------------------------------------------------------

G------------------------2024-2-------22---22-----------------------------------------------
D-0-00-00-00----2-22-22-2-------2---2----2----2-4-------44---44---0-00-00-00---2-22-22\-----
A-----------024-------------------0---------------4---4----4----4-----------024-------------
E---------------------------------------------------2----------------------------------024--

Then play the 2 After-Verse Riffs
Then play "Looking Back"

"Me and God":

G--------------------------------------------------------------------------------------------------------
D-----------------0-0-0-0-0-0-0-0------------------------------------------------2-2-2-2-2-2-2-2---------
A-4-4-4-4-4-4-4-4-----------------0-0-0-0-0-0-0------------------2-2-2-2-2-2-2-2-------------------------
E-----------------------------------------------02-2-2-2-2-2-2-2-----------------------------------------

Play this along with the guitar:(they are not straight notes like they are
written, they're off beat)
G-------------------------------------
D-------------------------2-2-0-------
G-----------------
A-0-0-0-0---------2-2-2-2-------4-----
D-2-2-222-00------
E---------2-2-2-2--------------------- (2x)
A------------44---
NOTE: on the second time play the last 4 notes really fast and play it like
this: E-----------------

Then play the 2 After Verse Riffs again, and then play this funky bass part
behind the trombone:

G---202---------2-012---202--------2---202--------2-012----22002255442024--
D---------------------------0033505----------------------------------------
A-0-----0h3h4h5--------0--------------0----0h3h4h5--------0----------------
E--------------------------------------------------------------------------

G---202---------2-012-------202--------2-012-----202-----------2-0--------------
D---------------------------------------------------------3-03-----20-----------
A-0-----0h3h4h5-----------0----0h3h4h5---------0-----0345-------------4-3-21-0--
E---------------------------------------------------------------------------4---





Comments


Popular Super Tones tabs & chords
Adonai Bass Tabs
Caught Inside Bass Tabs
Heaven 1 Bass Tabs
Little Man Bass Tabs
Little Man 1 Bass Tabs
One Voice Bass Tabs
Who Can Be Against Me Bass Tabs
Resolution Chords
Little Man (Intro) Tabs
Old Friend Tabs


Song lyrics



↑ Back to top | Tablatures and chords are parodies/interpretations of the original songs. You may use it for private study, scholarship, research or language learning purposes only
© 2014 AZChords.com Contact us | Privacy policy | DMCA | Add/correct tabs | Request tabs | Top 50 tabs