>
 >
Prince Of Peace

Prince Of Peace Guitar Tabs

Super Tones - Prince Of Peace chords, tabs, tablatures, lyrics

Guitar lessons | Add/correct | Request | Top 50 tabs Artists:  A B C D E F G H I J K L M N O P Q R S T U V W X Y Z 0-9

Prince Of Peace Guitar Tabs – Super Tones

CD, Sheet music, Poster

Do you like Prince Of Peace? Share with your friends now
Tabs
Prince of Peace
The OC Supertones


Intro/Verse
e|-----3--------1--------1--------6---------------------|
B|-----0--------1--------3--------8---------------------|
G|-----0--------2--------3--------8---------------------|
D|-----x--------3--------3--------8---------------------|
A|-----x--------3--------1--------6---------------------|
E|-----x--------x--------1--------6---------------------| x6

Chorus
e|-----3------6---6----1---1----1---1-------------------|
B|-----0------8---8----3---3----1---1-------------------|
G|-----0------8---8----3---3----2---2-------------------|
D|-----x------8---8----3---3----3---3-------------------|
A|-----x------6---6----1---1----3---3-------------------|
E|-----x------6---6----1---1----1---1-------------------| x1

e|---3---3----6---6----1---1----1---1-------------------|
B|---0---0----8---8----3---3----1---1-------------------|
G|---0---0----8---8----3---3----2---2-------------------|
D|---x---x----8---8----3---3----3---3-------------------|
A|---x---x----6---6----1---1----3---3-------------------|
E|---x---x----6---6----1---1----1---1-------------------| x3


Transition
e|---3--------3--------------|
B|---0--------3--------------|
G|---0--------3--------------|
D|---x--------x--------------|
A|---x--------x--------------|
E|---x--------x--------------|

Verse

Chorus


Bridge
e|---x---x----x----x-----x----x-----x---x---------------|
B|---x---x----x----x-----x----x-----x---x---------------|
G|---x---x----10---10----12---12----8---10--------------|
D|---8---8----10---10----12---12----8---10--------------| x2
A|---8---8----8----8-----10---10----6---8---------------|
E|---6---6----x----x-----x----x-----x---x---------------|

e|---x----x-----x---x--------|
B|---x----x-----x---x--------|
G|---12---12----8---10-------|
D|---12---12----8---10-------| x4
A|---10---10----6---8--------|
E|---x----x-----x---x--------|

Verse

Chorus


Guitar II Chorus Riff:
e|--------------------------------------|
B|--------------------------------------|
G|--------7---8----/10---8-7------------|
D|------8--------------------10---------|
A|---10---------------------------------|
E|--------------------------------------|





Comments


Popular Super Tones tabs & chords
Caught Inside Bass Tabs
Jury Duty Bass Tabs
Like No One Else 1 Bass Tabs
Little Man Bass Tabs
So Great A Salvation 1 Bass Tabs
Supertones Strike Back 1 Bass Tabs
Tonight Bass Tabs
Who Can Be Against Me 1 Bass Tabs
Resolution Chords
Little Man (Intro) Tabs


Song lyrics



↑ Back to top | Tablatures and chords are parodies/interpretations of the original songs. You may use it for private study, scholarship, research or language learning purposes only
© 2014 AZChords.com Contact us | Privacy policy | DMCA | Add/correct tabs | Request tabs | Top 50 tabs