» » »

Super Tones, Health And Wealth Bass tabs (ver.1)

Artists:  A B C D E F G H I J K L M N O P Q R S T U V W X Y Z # 

Health And Wealth Bass tabs (ver.1)

Super Tones Tabs
 Rating:
4/5 (4 votes)
Health And Wealth lessons Tabs too difficult? Try these video lessons and learn fast
                Tuning: standard (E, A, D, G)

Verse
|----------------------------|
|----------------------------|
|------------------4---------|
|-66-4h66-4h66-4h66----------|

Mid - Verse Break
|--------------------------------------------|
|--------------------------------------------|
|-------------------4-4-4-4------------------|
|-66-4h66-4h66-4h66---------4-4-4-4----------|

Prechorus Run
|-----------------------------------------|
|-----------------------------------------|
|-----------------------------------------|
|-1-1-1-1-1-1-1-1-1-1-1-1-1-1-1-1---------|


Chorus
|-----------------------------------------------------------------|
|-----------------------------------------------------------------|
|-----------------4-4-4-4-4-4-4-4-----------------6-6-6-6-6-6-6-6-|
|-6-6-6-6-6-6-6-6-----------------4-4-4-4-4-4-4-4-----------------|


|-----------------------------------------------------------------|
|-----------------------------------------------------------------|
|-----------------4-4-4-4-4-4-4-4---------------------------------|
|-6-6-6-6-6-6-6-6-----------------4-4-4-4-4-4-4-4-1-1-1-1-1-1-1-1-|


Solo
|---------------------------------------------------------|
|---------------------------------------------------------|
|-----44--------44--------44--------44----6-6-6-6-4-4-4-4-|
|-66-----44-66-----44-66-----44-66-----44-----------------|


Bridge
|------------------------------------------|
|------------------------------------------|
|-33-1h33-1h33-1h33-1h66-4h66-4h66-4h6h7p6-|
|------------------------------------------|

Bridge (with words)
|-----------------------------------------|
|-----------------------------------------|
|--------------------66-4h66-4h66-4h6h7p6-|
|-66-4h66-4h66-4h66-4---------------------|

Post-Bridge
|---------------------|
|---------------------|
|---------------------|
|-1--------1--------1-|


I think thats it.  The distortion parts in the second verse is just
a B flat without the hammer-on.  I think everything is just about correct.
            
Submit corrections

comments powered by Disqus
↑ Back to top | Super Tones Bass for Health And Wealth. Lyrics for acoustic guitar and electric guitar. Tablatures and chords are parodies/interpretations of the original songs. You may use it for private study, scholarship, research or language learning purposes only