» » »

Grounded Tabs (ver.1)

Artists:  A B C D E F G H I J K L M N O P Q R S T U V W X Y Z # 

Grounded Tabs (ver.1)

Super Tones
Rating:
0/5 (0 votes)

Hard to play? Try these video lessons and learn fast.
                (Intro)
This is just the cool little intro.

If you find something you think is wrong just E-mail me.
This should be correct. Have a ball ! 

Author/Artists: Supertones



-----------------------------------|---------------------------------|
-----------------------------------|---------------------------------|  
----------0-0----------------------|---------0-0---------------------|  
-2-2-2-2-------2-2-0-0-------------|-2-2-2-2-----2-2-0-0-------------|  
-----------------------4-4-0-0-2-2-|---------------------4-4-0-0-2-2-|  
-----------------------------------|---------------------------------|  

-----------------------------------| 
-----------------------------------|
---------0-0-----------------------|
-2-2-2-2-----2-2-0-0---------------|
-----------------------4-4-0-0-2-2-|
-----------------------------------|

-----------------------------------|
-----------------------------------|
---------0-0-----2-2-0-0-4-4-0-0---|
-2-2-2-2-----2-2-------------------|
-----------------------------------|
-----------------------------------|
            
Hard to play? Try these video lessons and learn fast. | Correct




comments powered by Disqus
↑ Back to top | Tablatures and chords are parodies/interpretations of the original songs. You may use it for private study, scholarship, research or language learning purposes only