» » »

Evil Powers Of Rock N Roll Bass tabs (ver.1)

Artists:  A B C D E F G H I J K L M N O P Q R S T U V W X Y Z # 

Evil Powers Of Rock N Roll Bass tabs (ver.1)

Supersuckers
Rating:
0/5 (0 votes)

Tabs too difficult? Try these video lessons and learn fast.
                intro

g --------/8-------------------------------------------
d -----------------------------------------------------
a -----------------------------------------------------
e -------------------0-0-2-2-4-4-4-4-0-0-2-2-4-4-4-4---

main riff

g -----------------------------------------------------
d -----------------------------------------------------
a -----------------------------------------------------
e ---0-0-2-2-4-4-4-4--0-0-2-2-4-4-4-4--0-0-2-2-4-4-4-4-


g -----------------------------------------------------
d -----------------------------------------------------
a -----------------------------------------------------
e ---7-7-7-7-7-7-7-7---2-2-2-2-2-2-2-2-----------------

prechorus

g -----------------------------------------------------
d -----------------------------------------------------
a -----------------------------------------------------
e -7-7-7-7-7-7-7-7---2-2-2-2-2-2-2-2---4-4-4-4-4-4-4-4-

g -----------------------------------------------------
d -----------------------------------------------------
a -----------------------------------------------------
e -7-7-7---9-9-9---------------------------------------

chorus

g -----------------------------------------------------
d -----------------------------------------------------
a -6-6-6-6-6-6-6-6---4-4-4-4-4-4-4-4---2-2-2-2-2-2-2-2-
e -----------------------------------------------------

g -----------------------------------------------------
d -----------------------------------------------------
a -4-4-4-4-4-4-4-4-------------------------------------
e -----------------------------------------------------


g -----------------------------------------------------
d -----------------------------------------------------
a -----------------------------------------------------
e -0-0-2-2-4----0-0-2-2-4---0-0-2-2-4------------------

outro

g -----------------------------------------------------
d -----------------------------------------------------
a -------6------------------------6--------------------
e ---0--------0-0----6-----0----------0-0----6---------

g -----------------------------------------------------
d -----------------------------------------------------
a --------6--------------------------------------------
e ---0-----------00-----6------------------------------

repeat til fade
            
Tabs too difficult? Try these video lessons and learn fast.




comments powered by Disqus
↑ Back to top | Tablatures and chords are parodies/interpretations of the original songs. You may use it for private study, scholarship, research or language learning purposes only