>
 >
Sail On

Sail On Guitar Tabs

Supersuckers - Sail On chords, tabs, tablatures, lyrics

Guitar lessons | Add/correct | Request | Top 50 tabs Artists:  A B C D E F G H I J K L M N O P Q R S T U V W X Y Z 0-9

Sail On Guitar Tabs – Supersuckers

CD, Sheet music, Poster

Do you like Sail On? Share with your friends now
Tabs
Sail On preformed by the supersuckers

writen by the commodors

intro

e------------------------------|
b------------------------------|
g-----------7b-----7b-5---9-7b-|
d-----------------------7------|
a------------------------------|
e-3-3-5-7-8--------------------|

e-------------------|
b---------5-8-5-----|
g-7b--5---------7-5-|
d-------7-----------|
a-------------------|
e-------------------|

e---------------------------------|
b---------------------------------|
g-7b-5---5---5--------------------|
d------7-------7-5----------------|
a------------------7-3------------|
e-----------------------3-3-5-7-8-|


verses go like this

guitar one(rythm):

e------------------1-1-111-1-1-111--1-1-111-1-1-111------------------|
b-1-1-111-1-1-111--3-3-333-3-3-333--3-3-333-3-3-333--1-1-111-1-1-111-|
g-0-0-000-0-0-000--2-2-222-2-2-222--2-2-222-2-2-222--0-0-000-0-0-000-|
d-2-2-222-2-2-222--0-0-000-0-0-000--0-0-000-0-0-000--2-2-222-2-2-222-|
a-3-3-333-3-3-333------------------------------------3-3-333-3-3-333-|
e--------------------------------------------------------------------|

guitar two(lead):

e----0-------0-------1------1---------1------1---------0-------0---|
b---1-1-----1-1-----3-3----3-3-------3-3----3-3-------1-1-----1-1--|
g--0-------0-------2---2--2---2-----2---2--2---2-----0-------0-----|
d-----------------0------0---------0------0------------------------|
a-3-------3-----------------------------------------3--------3-----|
e------------------------------------------------------------------|


Chorus on Both Guitars:

e---------3-3-333-------------|
b---------3-3-333-111----1111-|
g-----------------000-44-2222-|
d-3-3-333---------222-44-2222-|    play 3x then extend the last note
a-3-3-333-2-2-222-333-22------|
e-1-1-111-3-3-333-------------|


e----------------------111-|
b------------------1-x-333-|
g------------------0-x-222-|
d-3x333-3x333--3-x-2-x-----|    3x
a-3x333-3x333--3-x-3-x-----|
e-1x111-1x111--1-x---------|


e-----------3---------|
b-1---------3---------|
g-0-------------------|
d-2-------------------|
a-3---------2---------|
e-----------3---------|

then do it again, sorry i couldn't figure out the rest.





Comments


Popular Supersuckers tabs & chords
Born With A Tail Chords
Dead In The Water Chords
Good Livin Chords
Pretty Fucked Up Chords
Roamin Round Chords
Dirt Roads Dead Ends Dust Tabs
Good Old Boys Tabs
I Like It All Man Tabs
Poor Girl Tabs
Rock Your Ass Tabs


Song lyrics



↑ Back to top | Tablatures and chords are parodies/interpretations of the original songs. You may use it for private study, scholarship, research or language learning purposes only
© 2014 AZChords.com Contact us | Privacy policy | DMCA | Add/correct tabs | Request tabs | Top 50 tabs