» » »

Supersuckers, Rock Your Ass Tabs (ver.2)

Artists:  A B C D E F G H I J K L M N O P Q R S T U V W X Y Z # 

Rock Your Ass Tabs (ver.2)

Supersuckers Tabs
Rating:
0/5 (0 votes)
Rock Your Ass lessons Tabs too difficult? Try these video lessons and learn fast
                "
Listen to song for strumming and rhythm.

Main verse and intro
E-------------------------------------------------------------------|
B-------------------------------------------------------------------|
G-------9---------------9---------------7---------------7-----------|
D---9-9-9-9-9-9-8-9-9-9-9-9-9-9-9-8-7-7-7-7-7-7-6-7-7-7-7-7-7-7-7-8-|
A---9-9-7-9-9-9-8-9-9-9-7-9-9-9-9-8-7-7-5-7-7-7-6-7-7-7-5-7-7-7-7-8-|
E---7-7---7-7-7-6-7-7-7---7-7-7-7-6-5-5---5-5-5-4-5-5-5---5-5-5-5-6-|

Chorus
E---------------------------------------------------|
B---------------------------------------------------|
G---------------------------------------------------|
D---7-8-9-9-(9)-(9)-(9)-(9)-7-8-9-9-(9)-(9)-(9)-(9)-|
A---7-8-9-9-(9)-(9)-(9)-(9)-7-8-9-9-(9)-(9)-(9)-(9)-|
E---5-6-7-7-(7)-(7)-(7)-(7)-5-6-7-7-(7)-(7)-(7)-(7)-|

E-----------------------------------|
B-----------------------------------|
G-----------7---------------7-------|
D---9-8-7-7-5-7-7-7-6-7-7-7-5-7-7-7-|
A---9-8-7-7-5-7-7-7-6-7-7-7-5-7-7-7-|
E---7-6-5-5---5-5-5-4-5-5-5---5-5-5-|

Bridge
E-------------------------------------------|
B-------------------------------------------|
G-------9-----X-----9---X-----9---X-----9---|
D---9---9---9-X-9-9-9-9-X-9-9-9-9-X-9-9-9-9-|
A---9---7---9-X-9-9-7-9-X-9-9-7-9-X-9-9-7-9-|
E---7-------7-X-7-7---7-X-7-7---7-X-7-7---7-|   X1

E--------------------------------------------|
B--------------------------------------------|
G-------9-----X-----9---X-----7---X-----7----|
D---9---9---9-X-9-9-9-9-X-7-7-7-7-X-7-7-7-7--|
A---9---7---9-X-9-9-7-9-X-7-7-5-7-X-7-7-5-7--|
E---7-------7-X-7-7---7-X-5-5---5-X-5-5---5--|

Outro
E-------------------|
B-------------------|
G-------9-----9---9-|
D---9-9-9-9-9-9-9-9-|
A---9-9-7-9-9-7-9-7-|
E---7-7---7-7---7---| repeat to end
"            
Submit corrections

comments powered by Disqus
↑ Back to top | Supersuckers Tabs for Rock Your Ass. Lyrics for acoustic guitar and electric guitar. Tablatures and chords are parodies/interpretations of the original songs. You may use it for private study, scholarship, research or language learning purposes only