» » »

Good Night For My Drinkin Tabs (ver.1)

Artists:  A B C D E F G H I J K L M N O P Q R S T U V W X Y Z # 

Good Night For My Drinkin Tabs (ver.1)

Supersuckers
Rating:
0/5 (0 votes)

Hard to play? Try these video lessons and learn fast.
                Tune down half step, Listen to song for rhythm & strumming.

Intro
E-----------|
B-----------|
G-----------|
D---5-5-5-5-|
A---5-5-5-5-|
E---3-3-3-3-|

Verse
E-----------------------------------|
B-----------------------------------|
G-------------------5-5-5-5---------|
D---5-5-5-5-5-5-5-5-5-5-5-5-7-7-7-7-|
A---5-5-5-5-5-5-5-5-3-3-3-3-7-7-7-7-|
E---3-3-3-3-3-3-3-3---------5-5-5-5-| x2

E-------------------|
B-------------------|
G---7-7-7-7-7-7-7-7-|
D---7-7-7-7-7-7-7-7-|
A---5-5-5-5-5-5-5-5-|
E-------------------|

Chorus-hold last chord at end of each chorus.
E-----------------------------------|
B-----------------------------------|
G---------------------------7-7-7-7-|
D---5-5-5-5-2-2-2-2-7-7-7-7-7-7-7-7-|
A---5-5-5-5-2-2-2-2-7-7-7-7-5-5-5-5-|
E---3-3-3-3-0-0-0-0-5-5-5-5---------|

Outro
E-----------------------------|
B-----------------------------|
G---5-5-5-5-5-5-5-5-7-7-7-7---|
D---5-5-5-5-5-5-5-5-7-7-7-7-5-|
A---3-3-3-3-3-3-3-3-5-5-5-5-5-|
E---------------------------3-|
            
Hard to play? Try these video lessons and learn fast. | Correct




comments powered by Disqus
↑ Back to top | Tablatures and chords are parodies/interpretations of the original songs. You may use it for private study, scholarship, research or language learning purposes only