» » »

Supersuckers, Flying Into The Midday Sun Tabs (ver.1)

Artists:  A B C D E F G H I J K L M N O P Q R S T U V W X Y Z # 

Flying Into The Midday Sun Tabs (ver.1)

Supersuckers Tabs
 Rating:
4/5 (4 votes)
Flying Into The Midday Sun lessons Tabs too difficult? Try these video lessons and learn fast
                Tune down half step, Listen to song for perfect rhythm.

Intro & Verse
E-----------------------------------|
B-----------------------------------|
G---4-4-4-----------7-7---7---7-7---|
D---4-4-4---4-4-4---7-7---7---7-7---|
A---2-2-2-0-4-4-4---5-5-0-5---5-5-0-|
E-----------2-2-2-0-----------------|

Chorus
E---------------------------------------------------------|
B---------------------------------------------------------|
G------------------------------77777777-------------------|
D---55555555-77777777-99999999-77777777-55555555-77777777-|
A---55555555-77777777-99999999-55555555-55555555-77777777-|
E---33333333-55555555-77777777----------33333333-55555555-|

Second time the chorus plays, it repeats the first 4 chords twice

Chorus in solo at the end of the solo...
E-------------------|
B-------------------|
G---------7-9-11-13-|
D---5-7-9-7-9-11-13-|
A---5-7-9-5-7-9--11-|
E---3-5-7-----------|
            
Submit corrections

comments powered by Disqus
↑ Back to top | Supersuckers Tabs for Flying Into The Midday Sun. Lyrics for acoustic guitar and electric guitar. Tablatures and chords are parodies/interpretations of the original songs. You may use it for private study, scholarship, research or language learning purposes only