» » »

Supersuckers, Dirt Roads Dead Ends Dust Tabs (ver.1)

Artists:  A B C D E F G H I J K L M N O P Q R S T U V W X Y Z # 

Dirt Roads Dead Ends Dust Tabs (ver.1)

Supersuckers Tabs
 Rating:
4/5 (4 votes)
Dirt Roads Dead Ends Dust lessons Tabs too difficult? Try these video lessons and learn fast
1
                Tune down half step, listen to song for rhythm

Riff A
E---------------------------------------------------|
B---------------------------------------8-8-8-8-8---|
G---------------8-8-8-8-8-8-9-9-9-9-9-0-9-9-9-9-9-0-|
D---9-9-9-9-9-9-9-9-9-9-9-9-9-9-9-9-9-0-9-9-9-9-9-0-|
A---9-9-9-9-9-9-9-9-9-9-9-9-7-7-7-7-7---7-7-7-7-7---|
E---7-7-7-7-7-7-7-7-7-7-7-7-------------------------|

Riff B

E---------------------------------------------------|
B---------------------------------------------------|
G---------------------------------------------------|
D---9-9-9-9-9-9-7-7-7-7-7-7-2-2-2-2-2-2-5-5-5-5-5-5-|
A---9-9-9-9-9-9-7-7-7-7-7-7-2-2-2-2-2-2-5-5-5-5-5-5-|
E---7-7-7-7-7-7-5-5-5-5-5-5-0-0-0-0-0-0-3-3-3-3-3-3-|

Riff C

E---------------------------|
B---------------------------|
G---------------2-2-2-2-2-2-|
D---7-7-7-7-7-7-2-2-2-2-2-2-|
A---7-7-7-7-7-7-0-0-0-0-0-0-|
E---5-5-5-5-5-5-------------|

Riff D

E---------------------------|
B---------------------------|
G---------------------------|
D---7-7-7-7-7-7-4-4-4-4-4-4-|
A---7-7-7-7-7-7-4-4-4-4-4-4-|
E---5-5-5-5-5-5-2-2-2-2-2-2-|

Arrangement...

Riff A x 11
Riff B x 2
Riff C x 1
Riff A x 6
Riff B x 2
Riff C x 1
Riff A x 4
Riff B x 2
Riff D x 3
Riff A x 5

The END!
            
Submit corrections

comments powered by Disqus
↑ Back to top | Supersuckers Tabs for Dirt Roads Dead Ends Dust. Lyrics for acoustic guitar and electric guitar. 1 Tablatures and chords are parodies/interpretations of the original songs. You may use it for private study, scholarship, research or language learning purposes only