» » »

Bloody Mary Morning Tabs (ver.1)

Artists:  A B C D E F G H I J K L M N O P Q R S T U V W X Y Z # 

Bloody Mary Morning Tabs (ver.1)

Supersuckers
Rating:
4/5 (2 votes)

Hard to play? Try these video lessons and learn fast.
                Originally by: Willie Nelson
As done by: The Supersuckers

The song is pretty much the same as Willie's acoustic version except
The Supersuckers put the riff up front. Enjoy!

h = hammer on
/ = slide to fret

Intro Riff (repeat 2x)

e|------------------------------------|
b|------------------------------------|
g|------------------------------------|
D|---------------0-h2-/5-5-5----5-5-5-|
A|---------0-h2-----------------------|
E|-3-3-3-3----------------------------|


e|-----------------------------|
b|-----------------------------|
g|-----------------------------|
D|--------------0--------------|
A|---------0-h2----------------|
E|-3-3-3-3--------3-3-3--3-3-0-|

(After second time, end with these notes)

e|------------------|
b|------------------|
g|------------------|
D|------0-h2-3-3-3-3|
A|-0-h2-------------|
E|------------------|

            D
Well it's a Bloody Mary Mornin' baby left me without warnin'

E
sometime in the night
                                                                    A
So I'm flyin' down to Houston - forgetting her, the nature of my flight

Verse 1:
A                                                            E
As we taxi down the runway, the smog & haze reminding me of how I feel
                                                              A
Just a country boy who's learnin' that the pitfalls of the city are
extremely real

A                                                                  E
All the night life & the parties - temptation & deceit the order of the day

                                                                    A    A7
Well it's a bloody mary mornin' cause I'm leavin' baby somewhere in LA

Chorus:
            D                                               E
Well it's a Bloody Mary Mornin' baby left me without warnin sometime in the night
                                                                    A
So I'm flyin' down to Houston with forgetting her the nature of my flight


e|------------------------------------|
b|------------------------------------|
g|------------------------------------|
D|---------------0-h2-/5-5-5----5-5-5-|
A|---------0-h2-----------------------|
E|-3-3-3-3----------------------------|


e|-----------------------------|
b|-----------------------------|
g|-----------------------------|
D|--------------0--------------|
A|---------0-h2----------------|
E|-3-3-3-3--------3-3-3--3-3-0-|


e|------------------------------------|
b|------------------------------------|
g|------------------------------------|
D|---------------0-h2-/5-5-5----5-5-5-|
A|---------0-h2-----------------------|
E|-3-3-3-3----------------------------|

e|---------------------|
b|---------------------|
g|---------------------|
D|--------------0--2h3-|
A|---------0-h2--------|
E|-3-3-3-3-------------|

"Take it Willie..."

Strum G chord while lead guitar improvs the little solo part.
Don't feel like tabbing it

Verse 2:

A                                                          E
Our golden jet is airborn - flight 50 cuts a path across the mornin' sky
                                                                A
And a voice comes on the speaker reassuring us flight 50 is the way to fly.
                                                                E
A hostess takes our order - coffee, tea or somethin' stronger to start off
the day

 A    A7
Well it's a bloody mary mornin' cause I'm leavin' baby somewhere in LA


End Chorus:
            D                                               E
Well it's a Bloody Mary Mornin' baby left me without warnin sometime in the night
                                                                    A
So I'm flyin' down to Houston with forgetting her, the nature of my flight

e|------------------------------------|
b|------------------------------------|
g|------------------------------------|
D|---------------0-h2-/5-5-5----5-5-5-|
A|---------0-h2-----------------------|
E|-3-3-3-3----------------------------|


e|--------------------------------|
b|--------------------------------|
g|--------------------------------|
D|--------------0-h2--------------|
A|---------0-h2-------------------|
E|-3-3-3-3-----------3-3-3--3-3-0-|

e|------------------------------------|
b|------------------------------------|
g|------------------------------------|
D|---------------0-h2-/5-5-5----5-5-5-|
A|---------0-h2-----------------------|
E|-3-3-3-3----------------------------|


e|--------------------------|
b|--------------------------|
g|--------------------------|
D|--------------0-h2--/5-5-5|
A|---------0-h2-------------|
E|-3-3-3-3------------------|

If you see something wrong, edits are welcome! Cheers!
            
Hard to play? Try these video lessons and learn fast. | Correct




comments powered by Disqus
↑ Back to top | Tablatures and chords are parodies/interpretations of the original songs. You may use it for private study, scholarship, research or language learning purposes only