» » »

Smile Tabs (ver.1)

Artists:  A B C D E F G H I J K L M N O P Q R S T U V W X Y Z # 

Smile Tabs (ver.1)

Supernaturals
Rating:
1/5 (1 vote)

Hard to play? Try these video lessons and learn fast.
                This song is by the Scottish britpop group. It is written 
"It Doesn't Matter Anymore" (Food/Parlophone), and was 
also used on a TV advert for a bank. Full lyrics and further

Fairly easy to play:

Guitar:
E:--2--2---2--2---3--3---0--0----
b:--3--3---3--3---0--0---2--2----
g:--2--2---2--2---0--0---2--2----
d:--0--0---4--4---0--0---2--2----
a:---------4--4---2--2---0--0----
e:----------------3--3-----------

As far as I can work out, the Piano sequence is
D     F#m    G      A     D    F#m G A
Every silver lining has a cloud...

PRE-CHORUS
G       A               D
See the lines around my eyes,
F#      D             A
See the sarcasm in my smile,

FILL:                POST-CHORUS:
E:-------------      -----------------
b:------------- play -----------------
g:--0---------- main -x-----6-x-7-x-9-
d:----4-2-0---- riff -x-7-x-4-x-5-x-7-
a:----------0--      -x-5-x-----------
e:-------------      -----------------

Sent in by Richard W of
The Original Supernaturals Fan-page!
            
Hard to play? Try these video lessons and learn fast. | Correct




comments powered by Disqus
↑ Back to top | Tablatures and chords are parodies/interpretations of the original songs. You may use it for private study, scholarship, research or language learning purposes only